Extremoduro - Correcaminos Estate Al Loro Chords & Tabs

 

Correcaminos Estate Al Loro Chords & Tabs

Extremoduro Chords & Tabs

Version: 1 Type: Chords 0 ratings
1 star 2 stars 3 stars 4 stars 5 stars
comments

Correcaminos Estate Al Loro Chords

+ Tabulados de made in spain!                   +
+ (http://mades.kaos.es)                        +
+++++++++++++++++++++++++++++++++++++++++++++++++

   Riff de la Intro:                2 veces
e |---------------------------------|
B |---------------------------------| Este riff es usado varias veces entre
G |----------------------------7--7-| la parte lenta y la parte r pida.
D |----------------------------7--7-|
A |----------------------------5--5-|
E |--0--0--2--3---0--0--2--3--------|
[ Tab from: http://www.guitartabs.cc/tabs/e/extremoduro/correcaminos_estate_al_loro_crd.html ]
   Estrofa:                          1.    2. final
e |--------------|------------------|-----|-------------------------------|
B |--------------|------------------|-----|-------------------------------|
G |-varias veces-|-varias veces-----|-----|--9-9-7-7-----------------7-7--|
D |--------------|------------------|--9--|--9-9-7-7-----------------7-7--|
A |--------------|------------------|--9--|--7-7-5-5-----------------5-5--|
E |--0--0--2--3--|--7--7--9--10--10-|--7--|----------0-0-2-3-0-0-2-3------|
   Corre......     Y no tiene          |      Y no tiene carnet.....
                                        \Acelera
Comments