Extol - Work Of Art Chords & Tabs

 

Work Of Art Chords & Tabs

Extol Chords & Tabs

Version: 1 Type: Bass Tab

Work Of Art Bass Tab

   
Song Name: Work Of Art
Band Name: Extol
Album Name: Burial
Bassist: Eystein Holm
Tabber: Lance Sutton

This is one of the strangest songs I've heard from Extol, but it also happens to be one
my favorites. I think the lyrics are very interesting, as is the guitar. The bass sounds
crazy in this song, especially in the chorus, but it is surprisingly easy to play (one 
the reasons Holm is one of my favorite bassists of all time, simple yet complicated).
a fun song to play, nonetheless.

Tab your bass to D standard for this song.

_/_=slide
_h_=hammer-on
_..=alternate pick (for short)


Intro 1:
G------|
D------|
A----2-|
E-1----|

Riff 1:
G----------------|
D----------------|
A--------3-----2-|
E-----0-----1----|

Intro 2:
G---------|
D---------|
A---------|
E-0--0--0-|

Riff 2:
G---------------------|
D---------------------|
A---------------------|
E-0-------3--1--3/4-1-|

Intro 3:
G-------|
D-------|
A----6--|
E-6-----|

Riff 3a:
G-----------------------------|
D-999-------------------------|
A----101010666---777888---666-|
E-------------888------666----|

Riff 3b:
G----------------------------|
D-999------------------------|
A----101010666--777888---666-|
E-------------88------666----|
[ Tab from: http://www.guitartabs.cc/tabs/e/extol/work_of_art_btab.html ]
Riff 4a:
G-----------------------------------------------|
D-----------------------------------------3h5-3-|
A-----------------------2-3-3-3-2-2-2---3-------|
E-0-0-0-0-0-3-5-5-5-5-5---------------1---------|

Riff 4b:
G-------------------------------------------------|
D-------------------------------------------3-3-3-|
A-----------------------2-3-3-3-2-2-2-------------|
E-0-0-0-0-0-3-5-5-5-5-5---------------1-1-1-------|

Riff 5a:
G-------------------------------------------------|
D-2-2-2-2-4-5-7-7-7-3-3-3-2-2-2-------------3-3-3-|
A-------------------------------2-2-2-3-3-3-------|
E-------------------------------------------------|

Riff 5b:
G-------------------------------------------------|
D-3-3-3-3-5-6-8-8-8-4-4-4-3-3-3-------------4-4-4-|
A-------------------------------3-3-3-4-4-4-------|
E-------------------------------------------------|

Riff 3c*:
G---------------------------|
D-9..-----------------------|
A----10..6..---7..8..---666-|
E-----------8..------6..----|

*This is the very ending riff, where I believe he alternate picks through riff 3.

Anyway, I hope you enjoy playing this song as much as I enjoyed tabbing it.

Questions? Compliments? Curses? E-mail me @ sir_lancelot149@yahoo.com or
I look forward to hearing from you.