Extol - Emancipation Chords & Tabs

 

Emancipation Chords & Tabs

Extol Chords & Tabs

Version: 1 Type: Tab 0 ratings
1 star 2 stars 3 stars 4 stars 5 stars
comments

Emancipation Tab

Extol-Emancipation, intro

It sounds pretty close, Extol's freakin hard to tab though.

Enjoy

Drop D standard tuning
[ Tab from: http://www.guitartabs.cc/tabs/e/extol/emancipation_tab.html ]
Guitar 1
e---------------------------------------------------------------|
B---------------------------------------------------------------|
G----------------------------pm-------pm---pm-------------------|
D-------10--------7------4--4444--5--5555--2-2------------------|
A-0h6h9-----0h3h6---6----4--4444--5--5555--2-2------------------|
D------------------------4--4444--5--5555--2-2------------------|
these two alternate
e---------------------------------------------------------------|
B--------------------------------------------let ring-----------|
G----------------------------pm-------pm----3-2-----------------|
D-------10--------7------4--4444--5--5555-----------------------|
A-0h6h9-----0h3h6---6----4--4444--5--5555-----------------------|
D------------------------4--4444--5--5555-----------------------|

Guitar 2 Harmony (comes in with vocals)
e---------------------------------------------------------------|
B---------------------------------------------------------------|
G----------------------------pm-------pm---pm-------------------|
D-------13--------10-----4--4444--5--5555--2-2------------------|
A-0h9h12-----0h6h9--9----4--4444--5--5555--2-2------------------|
D------------------------4--4444--5--5555--2-2------------------|

thoughts, questions, comments, email fleug86@aol.com

-mike pflueger
Comments