Explosions In The Sky - Your Hand In Mine Chords & Tabs

 

Your Hand In Mine Chords & Tabs

Explosions In The Sky Chords & Tabs

Version: 2 Type: Tab 0 ratings
1 star 2 stars 3 stars 4 stars 5 stars
comments

Your Hand In Mine Tab

   
-------------------------------------------------------------------------------------
	        Your Hand In Mine (Goodbye) - Explosions In The Sky
-------------------------------------------------------------------------------------
Tabbed by: Luke Vogelsberg
Email: EastonZ4@aol.com

Tuning: Standard

Guitar 1:  
e|---0-0-0-0-0-0-0-0-0-0-0-0-0-0-0-0-0-0-0-----|
B|---------------------------------------------|
G|---------------------------------------------| This part is repeated through 
D|-----2-----4-----6-6------2-----4-----2-2----| the entire song.
A|--4-----0--------------4-----0---------------|
E|--------------0--------------------0--0------|


Guitar 2:
e|-----------------------------------------------------------------------------------|
B|--5--4\0--2-0-----------------5--7--9--10-9\5---10-9\5---5---7-5--9-10--9-10--9\5--|
G|---------------1--2--1--1-2-4--------------------------6---8-----------------------|
D|-----------------------------------------------------------------------------------|
A|-----------------------------------------------------------------------------------|
E|-----------------------------------------------------------------------------------|

e|--7-7-7-7-7-7-7-7-5-5-4-4-5-5-5-5-5-5-5-5-4-4-0-0-0-0-0-0-0-0-2-2-2-2-2-2-0--------|
B|----------------------------------------------------------------------------2-4-5-7|
G|-----------------------------------------------------------------------------------|
D|-----------------------------------------------------------------------------------|
A|-----------------------------------------------------------------------------------|
E|-----------------------------------------------------------------------------------|
[ Tab from: http://www.guitartabs.cc/tabs/e/explosions_in_the_sky/your_hand_in_mine_tab_ver_2.html ]
e|-----------------------------------------------------------------------------------|
B|--12-12-12-12-12-12-10-10-9-9-2-5-4-0-0-0-0-0-0-0-----------5-4\0-2-0--------------|
G|--------------------------------------------------2-2-1-1-------------1-2-1--1-2-4-|
D|-----------------------------------------------------------------------------------|
A|-----------------------------------------------------------------------------------|
E|-----------------------------------------------------------------------------------|

e|-----------------------------------------------------------------------------------|
B|--12-12-12-12-12-12-12-12-10-10-9-9-10-10-10-10-10-10-10-10-9-9-7-7----------------|
G|-----------------------------------------------------------------------------------|
D|-----------------------------------------------------------------------------------|
A|-----------------------------------------------------------------------------------|
E|-----------------------------------------------------------------------------------|

e|-----------------------------------------------------------------------------------|
B|--5-5-5-5-5-5-7-7-7-7-7-7-5-2-4-5-7-12-12-12-12-12-12-10-10-9-9-2-5-4-0-------2----|
G|------------------------------------------------------------------------4-2-1------|
D|-----------------------------------------------------------------------------------|
A|-----------------------------------------------------------------------------------|
E|-----------------------------------------------------------------------------------|

| /  slide up
| \  slide down
| h  hammer-on
| p  pull-off
| ~  vibrato
| +  harmonic
| x  Mute note
===============================================================================
Comments