Exploited - Was It Me Chords & Tabs

 

Was It Me Chords & Tabs

Exploited Chords & Tabs

Version: 1 Type: Tab 0 ratings
1 star 2 stars 3 stars 4 stars 5 stars
comments

Was It Me Tab

Band:The exploited
Album:Fuck the system
Song:Was it me
Tabbed by Petit_Agite(antichrist_1996@msn.com)
Intro:
1)--------------------------------|
2)--------------------------------|
3)--------------------------------|
4)1-1-1-1-1-1-1-1-1-1-1-1-1-1-1-1-|
5)1-1-1-1-1-1-1-1-1-1-1-1-1-1-1-1-|
6)0-0-0-0-0-0-0-0-0-0-0-0-0-0-0-0-|

Verse:
1)---------------------------------|
2)---------------------------------|
3)---------------------------------|
4)4-4-4-4-4-4-4-4--3-3-3-3-3-3-3-3-|
5)2-2-2-2-2-2-2-2--1-1-1-1-1-1-1-1-|
6)---------------------------------|

Chorus:
1)-------------------------------------------------------------------|
2)-------------------------------------------------------------------|
3)11-11-11-11-11-11-11-11-10-11-10-8-8-8-8-8-8-8-8-8-8-8-8-8-8-8-8-8-|
4)-------------------------------------------------------------------|
5)-------------------------------------------------------------------|
6)-------------------------------------------------------------------|

Interlude:
1)----------------------------------------------------------|
2)----------------------------------------------------------|
3)----------------------------------------------------------|
4)----4-----4-----4-4-4---4---3---1-------1-----1-1-1---1-0-|
5)--2-----2-----2-------2-------1------1------1-------1-----|
6)0-----0-----0---------------0-----0-------0---------------|
PM. . . . . . . . . . . . . . . . . . . . . . . . . . . . .
[ Tab from: http://www.guitartabs.cc/tabs/e/exploited/was_it_me_tab.html ]
Solo:
1)----------------------------------------------------------------|
2)/13-13-13-12-13-/15-15-15-14-15-/16-16-16-15-16-/18-18-18-17-18-|
3)/13-13-13-12-13-/15-15-15-14-15-/16-16-16-15-16-/18-18-18-17-18-|
4)/13-13-13-12-13-/15-15-15-14-15-/16-16-16-15-16-/18-18-18-17-18-|
5)----------------------------------------------------------------|
6)----------------------------------------------------------------|

1)---------------------------------------|
2)---------------------------------------|
3)14b-13-14b-13-14b-13-14b-13-14b-13-14--|b
4)---------------------------------------|
5)---------------------------------------|
6)---------------------------------------|

1)------------------|
2)------------------|
3)------------------|
4)16b-h15-16-13-15--|b
5)------------------|
6)------------------|

1)/17-17-17-16-17-/19-19-19-18-19-/20-20-20-19-20-/22-22-22-21-22-|
2)/17-17-17-16-17-/19-19-19-18-19-/20-20-20-19-20-/22-22-22-21-22-|
3)----------------------------------------------------------------|
4)----------------------------------------------------------------|
5)----------------------------------------------------------------|
6)----------------------------------------------------------------|

1)-----------------------------------------------------|
2)22b-21b-22b-21b-22b-21-22b-21-22b-21-22b-------------|
3)-----------------------------------------17-19-20-22-|
4)-----------------------------------------------------|
5)-----------------------------------------------------|
6)-----------------------------------------------------|

(Exploited play this 30 seconds)
1)24-24-24-24-24-24-24-24-24-24-24-24-24-24-24-24-24-24-24-|
2)---------------------------------------------------------|
3)---------------------------------------------------------|
4)---------------------------------------------------------|
5)---------------------------------------------------------|
6)---------------------------------------------------------|

Intro(Starting with drums and bass)
Verse 6x
Chorus 4x
Intro
Verse 6x
Chorus 4x
Intro
Interlude 8x
Solo
Chorus

That's all! Any comment email me antichrist_19962msn.com
Comments