Exploited - Son Of A Copper Chords & Tabs

 

Son Of A Copper Chords & Tabs

Exploited Chords & Tabs

Version: 2 Type: Bass Tab 0 ratings
1 star 2 stars 3 stars 4 stars 5 stars
comments

Son Of A Copper Bass Tab

   
                           SON OF A COPPER 
                            As recorded by Exploited
                       (From the  Album PUNK'S NOT DEAD)
 
Music by Exploited
Transcribed by stewo aka. stjePANJ
 
standard tuning(E A D G) - ''
 
Verse and main part
  Gtr I
  Q  S S S S E E E E   Q  E E Q E E Q
|--------------------|-----------------|--|
|--------------------|----9-7----------|--|
|--------------------|-7------9--------|--|
|-9--9-9-9-9-9-9-5-7-|----------7-7-9--|--|
 
Chorus("I won't end up like my dad")
 
  S  S E  Q E E E E H
|------------------------|
|------------------------|
|-9--9-9--7-5-5----------|
|---------------5-5-7----|
 
These are the parts ,just put it together and play it loud.Punk's not dead!!!.
 
NO PASARAN!!!!
e mail me for any information at stjePANJ@ganja.com or stewo_diabolus@yahoo.com
 
notes  Q-quarter length
       S-16th
       E-8th
       H-half
enjoy :->

[ Tab from: http://www.guitartabs.cc/tabs/e/exploited/son_of_a_copper_btab_ver_2.html ]
Comments