Exploited - Massacre Chords & Tabs

 

Massacre Chords & Tabs

Exploited Chords & Tabs

Version: 2 Type: Tab 0 ratings
1 star 2 stars 3 stars 4 stars 5 stars
comments

Massacre Tab

Tabbed by: VampireFreak
Email:

Tuning: Standard

* -Palm muted

"This face of death is by far the most devistating. Helpless people were murdered like
animals in a slaughterhouse. I personally don't know this type of situation to repeat
itself...but if it does, we all deserve a life in hell."

Verse 1 (Repeat 13 times. Don't palm mute first four times)
e|---------------------------------------------------------------------------|
B|---------------------------------------------------------------------------|
G|---------------------------------------------------------------------------|
D|-------------5-----7-------------------------------------------------------|
A|--7  777777--3--5--5--7----------------------------------------------------|
E|--5  555555-----3-----5----------------------------------------------------|
    *  ******
[ Tab from: http://www.guitartabs.cc/tabs/e/exploited/massacre_tab_ver_2.html ]
Chorus
e|---------------------------------------------------------------------------|
B|---------------------------------------------------------------------------|
G|---------------------------------------------------------------------------|
D|---------------------------------------------------------------------------|
A|-11-11-11-11-11-11-11-11-11-11-11  9---(Repeat twice)----------------------|
E|--9--9--9--9--9--9--9--9--9--9--9  7---------------------------------------|

Verse 2 (Repeat 8 times)
e|---------------------------------------------------------------------------|
B|---------------------------------------------------------------------------|
G|---------------------------------------------------------------------------|
D|----------5-----7----------------------------------------------------------|
A|--7  777--3--5--5--7-------------------------------------------------------|
E|--5  555-----3-----5-------------------------------------------------------|
    *  ***

Verse 1
Chorus
Verse 1
Solo (play verse 1 through solos)
Verse 2
Chorus
Solo
Verse 2
Chorus
Verse 2
(Bass solo "WHY?" parts)
Solo
Verse 2
Chorus
Verse 2

The Exploited is one of the greatest punk bands ever. Kind of a long song, but it's
pretty easy. I apologize for not knowing the solos, I'll figure them out and post them
eventually, unless you do it first. Remember: Do not stake vampires and do not shoot
zombie's heads.
Comments