Exodus - Shroud Of Urine Chords & Tabs

 

Shroud Of Urine Chords & Tabs

Exodus Chords & Tabs

Version: 1 Type: Tab 0 ratings
1 star 2 stars 3 stars 4 stars 5 stars
comments

Shroud Of Urine Tab

   
Band: Exodus
Album: Tempo of the Damned
Song: Shroud of Urine


.  - palm mute                  /  - slide up to
\  - slide down to              ~  - vibrato
h  - hammer on                  b  - bend
p  - pull off                   Suffixes for bend
ph - pinch harmonic             f - full bend    h - half bend
*  - see comment                r - release      t - tap bend
X  - percussion mute            ~ - vibrato bend
@  - slight palm mute           () - ghost note, sustained note
I  - Gary Holt                        II - Rick Hunolt
phb- pinch harmonic with bend

Please tune to : D G C F A D

|-----------------------------------------------|
|-----------------------------------------------|
|-----------------------------------------------|
|-----------------------------------------------| I and II
|-----------------------------------------------|
|-0--00000--0-111--0-00000-0-111--0-00000-0-111-|
  .  .....  . ...  . ..... . ...  . ..... . ...


|---------------------------|
|---------------------------|
|---------------------------|
|-3p2p0h2p0-----------------|  I and II
|-----------h3p2p3p2p0------|
|----------------------h3p2-|


|-----------------------------------------------|
|-----------------------------------------------|
|-----------------------------------------------|
|-----------------------------------------------|  I and II
|-----------------------------------------------|
|-0--00000--0-111--0-00000-0-111--0-00000-0-111-|
  .  .....  . ...  . ..... . ...  . ..... . ...


|---------------------------|
|---------------------------|  I and II
|---------------------------|
|----------------2p0h2------| * Before the chorus and some other times
|-------2p0--123------------|  the D note on the 4th string is sustained longer
|-3p0-x---------------------|


Chorus
|-----------------------------|------------------0-|
|-----------------------------|------------------0-|
|-----------------------------|--------------------|
|-12-----12-----7---8---10\-9-|-12-----7-8-9-xxx-9-|
|-10-----10-----5---6---8--\7-|-10-----5-6-7-xxx-7-|
|----000----000---0---0-------|----000-------------|
     ...    ...   .   .            ...

|-----------------------------|------------------------------|
|-----------------------------|------------------------------|
|-----------------------------|------------------------------|
|-12-----12-----7---8---10\-9-|-12-----7-7-xxx-7-7-xxx-7-8-9-|
|-10-----10-----5---6---8--\7-|-10-----5-5-xxx-5-5-xxx-5-6-7-|
|----000----000---0---0-------|----000-----------------------|
     ...    ...   .   .            ...


|----------------------------------------------------|
|----------------------------------------------------|
|----------------------------------------------------|
|-----------3p0h3-----------3p0h3----5p0h5-----3p0h3-| Guitar I
|----------------------------------------------------|
|-0-00000-0-------0-00000-0------3-3-------1-1-------|
  . ..... .       . ..... .      . .       . .

|----------------------------------------------------|
|-----------6p3h6-----------6p3h6-----8p5h8----6p3h6-|
|----------------------------------------------------|
|----------------------------------------------------| Guitar II
|----------------------------------------------------|
|-0-00000-0-------0-00000-0-------3-3-------1-1------|
  . ..... .       . ..... .       . .       . .


|--------------------------------------------------|
|--------------------------------------------------|
|--------------------------------------------------|
|-3p2p0h2p0----------------------------------2-----|
|-----------h3p2p3p2p0--------------2p0--123-------|
|----------------------h3p2---3p0-x----------------|


1st SOLO - Gary Holt

|-15p19p15--------15----20p15------15-|-19p15--------15----20p15------15-----|
|---------17--17------------17--17----|-------17--17------------17--17-------|
|-----------16----------------16------|---------16----------------16---------|
|-------------------------------------|--------------------------------------|
|-------------------------------------|--------------------------------------|
|-------------------------------------|--------------------------------------|
[ Tab from: http://www.guitartabs.cc/tabs/e/exodus/shroud_of_urine_tab.html ]
|-19-17-15-17-15-14-15-14--------------------|--------------------------------|
|-------------------------17-15-17-15--------|--------------------------------|
|-------------------------------------17-16~-|-16-17-16-14---- 16-17-16-14----|
|--------------------------------------------|-------------17~----------17~---|
|--------------------------------------------|--------------------------------|
|--------------------------------------------|--------------------------------|


|-12-15-----------------------------------------------------------|
|------13-15-13-12-12h13p12---12----------------------------------|
|---------------------------14--14-12-14-12-11-12-11--11----------|
|---------------------------------------------------14---14-12-14-|
|-----------------------------------------------------------------|
|-----------------------------------------------------------------|


|--------------------------|---------------------|
|-12-13-12-13-5-7-7phb-7---|---------------------|
|------------------------9-|-11-12-11------------|
|--------------------------|---------14-12-------|
|--------------------------|--------------15-14~-|
|--------------------------|---------------------|

|------------------------------------------------------|
|------------------------------------------------------|
|------------------------------------------------------|
|-9-9/10--10-10/12--12-12/14--14-14/16-16-16/17-17h917-|
|------------------------------------------------------|
|------------------------------------------------------|


|--------------------------|
|-12-17-19-20-19-20-22-15f-|
|--------------------------|
|--------------------------|
|--------------------------|
|--------------------------|

2nd SOLO- Rick Hunolt

|-----------------------------------------------|
|-------------------------------10-9---9h10p9---|
|-------------------999-7--9-7-9-----9-------9--|
|-777-6-------777-6-----------------------------|
|-------555-7-----------------------------------|
|-----------------------------------------------|


|----------------------------------------------------------------------------|
|--------9h10p9---------9-----------9----------10b12-10----9--10----9--10----|
|-9h10h12------9-9h10h12--9--9h10h12--9-9h10h12---------10--9----10--9----9~-|
|----------------------------------------------------------------------------|
|----------------------------------------------------------------------------|
|----------------------------------------------------------------------------|


|-----------------------------------------------------------------------------|
|9p6-----6---12p9--------9---15p12--------12-/17-15b-17-15b-13-12-10-12-10-9--|
|---9p7h9--------12p10h12---------15p13h15--------------------------------9~--|
|-----------------------------------------------------------------------------|
|-----------------------------------------------------------------------------|
|-----------------------------------------------------------------------------|


|----------------------------------------------------------|
|----------------------------------------------------------|
|-9--/14--/13--/11--/13--/9~--9--/7--7-/12-12--/11-11--/9~-|
|---/----/----/----/----/-------/-----/-------/-------/----|
|-7/--12/--11/--9-/--11/--7~--7/--5-5/--10-10/--9--9-/--7~-|
|----------------------------------------------------------|

3rd SOLO- G. Holt and R. Hunolt

|-12-8----12-8----12-8-----12-8----12-8-----12-8-----12-8-----12-8---|
|-----10------10------10-------10------10-------10-------10-------10-|
|--------------------------------------------------------------------|
|--------------------------------------------------------------------|
|--------------------------------------------------------------------|
|--------------------------------------------------------------------|

|-15-12----15-12----15-12----15-12----13-10-----13-10----10-7----10-7--|
|------13-------13-------13-------13-------12--------12------9-------9-|
|----------------------------------------------------------------------|
|----------------------------------------------------------------------|
|----------------------------------------------------------------------|
|----------------------------------------------------------------------|

|----------------------------------------------------------------------|
|----------------------------------------------------------------------|
|----------------------------------------------------------------------|
|----------------------------------------------------------------------|
|----------------------------------------------------------------------|
|-0-00000-0-1p0h1--0-00000-0-1p0h1--0-0-1p0h1--0-0-1p0h1---------------|
  . ..... .        . ..... .        . .        . .


|---------------------------------------------------|
|---------------------------------------------------|
|---------------------------------------------------|
|-3p2p0h2p0----------------------------------2---2--| I and II
|-----------h3p2p3p2p0--------------2p0--123-----2--|
|----------------------h3p2---3p0-x--------------0--|
Comments