Exodus - Last Act Of Defiance Chords & Tabs

 

Last Act Of Defiance Chords & Tabs

Exodus Chords & Tabs

Version: 1 Type: Tab 0 ratings
1 star 2 stars 3 stars 4 stars 5 stars
comments

Last Act Of Defiance Tab

Exodus
Last Act of Defiance
Fabulous Disaster
Transcribed by Mike Kimball
[bloodmetalcontent@yahoo.com]
[geocities.com/bloodmetalcontent]

As with all guitar tablature, a mono-spaced font
(e.g. Courier or Monaco) is required to display properly...

Fig. 1
|----------------------------------
|----------------------------------
|----------------------------------
|----------5---------------2-------
|--7-------5-------5-------2-------
|--6---0-0-3---0-0-4---0-0-0---0-0-


Fig. 2
|------------------------------------------------------
|------------------------------------------------------
|------------------------------------------------------
|------2-------2-------2---------------2-------2-------
|--5-5-2---5-5-2-5---5-2-----------5-5-2---5-5-2-5---5-
|--3h4-0---3h4-0-3---4-0-000-000-0-3h4-0---3h4-0-3---4-

|---------------
|---------------
|---------------
|----6-7---7-8--
|----6-7---7-8--
|--0-4-5-0-5-6--


Fig. 3
|------------------------------------------------------
|------------------------------------------------------
|------------------------------------------------------
|--2-----------------------5-------2---------------5-6-
|--2---------------5-------5-------2---------------5-6-
|--0---0-000-000-0-4---0-0-3---0-0-0---0-000-000-0-3-4-
[ Tab from: http://www.guitartabs.cc/tabs/e/exodus/last_act_of_defiance_tab.html ]
|----------------------------------------------------
|----------------------------------------------------
|----------------------------------------------------
|----6-7---7-8-2-----------------------5-------2-----
|----6-7---7-8-2---------------7-------5-------2-----
|--0-4-5-0-5-6-0---0-000-000-0-6---0-0-3---0-0-0---0-

|------------------------------------------------------
|------------------------------------------------------
|------------------------------------------------------
|------------8-7---7-6---6-5-2-----------------------5-
|------------8-7---7-6---6-5-2---------------5-------5-
|--000-000-0-6-5-0-5-4-0-4-3-0---0-000-000-0-4---0-0-3-

|------------------------------------------------------
|------------------------------------------------------
|------------------------------------------------------
|------2---------------5-6---6-7---7-8-2---------------
|------2---------------5-6---6-7---7-8-2---------------
|--0-0-0---0-000-000-0-3-4-0-4-5-0-5-6-0---0-000-000-0-

|--------------------------------------------------
|--------------------------------------------------
|--------------------------------------------------
|----------5-------2---------------4-5---5-6---6-7-
|--7-------5-------2---------------4-5---5-6---6-7-
|--6---0-0-3---0-0-0---0-000-000-0-2-3-0-3-4-0-4-5-


Fig. 4
|------------------------------------------------
|------------------------------------------------
|------------------------------------------------
|--2-----------2---2-----------------------------
|--2-----------2---2-----------5---5-5-----------
|--0---0-000-0-0---0---0-000-0-3---3h4---0-000-0-

|----------------------
|----------------------
|----------------------
|----------------------
|--7---7-7-----7-7-----
|--5---5h6-0-0-5h6-0-0-

  Visit MetalTabs.com for more metal tablatur
Comments