Exodus - Dirty Deeds Done Dirt Cheap Chords & Tabs

 

Exodus Chords & Tabs

Version: 1 Type: Tab 0 ratings
1 star 2 stars 3 stars 4 stars 5 stars
comments

Dirty Deeds Done Dirt Cheap Tab

Band: Exodus
Song: Dirty Deeds Done Dirt Cheap
Album: Tempo of the Damned

Intro 1:

|----------------------------------------------------------|-------|
|----------------------------------------------------------|-------|
|----------------------------------2-----------------------|-------|
|----2------------5--2-------------2--2-----------5--2-----|-------|
|----2------------5--2-------------0--2-----------5--2-----|-------|
|--0-0----------0-3--0-----------0----0---------0----0-----|--000--|
   .            .                .              .             ...

Intro 2:

|-------------------------------------|------------------------------|
|-------------------------------------|------------------------------|
|--------------------2----------------|------------------------------|
|--2-------5-2-------2-2-------5-2----|------------------------------|
|--2-------5-2-------0-2-------5-2----|------------------------------|
|--0-00000-3-0-00000---0-00000---0----|--000000----------------------|
     .....     .....     .....           ......
[ Tab from: http://www.guitartabs.cc/tabs/e/exodus/dirty_deeds_done_dirt_cheap_tab.html ]
Verse Riff:
                       Last time
|---------------------|----------------------------------------------|
|---------------------|----------------------------------------------|
|---------------------|----------------------------------------------|
|-----7-7-7-s-9-------|--7-7-7---------------------------------------|
|-----7-7-7-s-9-------|--7-7-7-7-7-7-7-7-----------------------------|
|-----5-5-5-s-7-------|--5-5-5-5-5-5-5-5-----------------------------|
                               . . . . .

Chorus:

|--------------------------------------------------------------------|
|--------------------------------------------------------------------|
|--------------------------------------------------------------------|
|--2-------2-5-2-----------------------------------------------------|
|--0---000-0-5-0-000-2-------2-5-2-----------------------------------|
|--------------------0---000-0-5-0-000-------------------------------|
       ...       ...     ...       ...


Solo: I think the solo is nearly the same, as in the original Version
      from AC/DC


Outro: Listen to the CD to catch the rythm

|--------------------------------------------------------------------|
|--------------------------------------------------------------------|
|----------------------2---------------------------------------------|
|--2-2--2-2-5-2-2--2-2-0-2-2-2-2---2-5-2-----------------------------|
|--0-0--0-0-3-0-0--0-0---0-0-0-0---0-5-0-----------------------------|
|--------------------------------------------------------------------|
Comments