Exit This Side - Wasted Chords & Tabs

 

Wasted Chords & Tabs

Exit This Side Chords & Tabs

Version: 1 Type: Tab 0 ratings
1 star 2 stars 3 stars 4 stars 5 stars
comments

Wasted Tab

   
   -Exit This Side-
       -Wasted-
-Tabbed By Ryan Gregg-

About:
Kick ass band but absolutly no tabs out there so I made this one.
I think its pretty much correct except I couldn't reproduce the sound of the bar cords 
so they may be off. '/' means hit the first sting in a slew of note but just place your 
fingers for the others.

Tunning:
Standard (EADGBE)

Cords:
C#: X46664 Or X466XX
G#: 466544 Or X665XX

Intro | Slight Distortion:
||-----1---||-4-------1------||
||---------||-----4----------||
||-3-------||----------------|| X4
||---------||----------------||
||---------||----------------||
||---------||----------------||

Intro Cords X 8:
G# C# C#  C# C# C# C#

Verse 1 X2 | Distortion:
||----------------||    ||--------------------------------||
||----------------||    ||--------------------------------||
||-3--3-X-3-3-3-3-|| X2 ||-8--8-X-8-8-8-8-----------------||
||-3--3-X-3-3-3-3-||    ||-8--8-X-8-8-8-8--6--6-X-6-6-6-6-||
||-1--1-X-1-1-1-1-||    ||-6--6-X-6-6-6-6--6--6-X-6-6-6-6-||
||----------------||    ||-----------------4--4-X-4-4-4-4-||

Verse 2 | Slight Distortion:
||-1---||-4-------1----------||
||-----||-----4--------------||
||-----||--------------------|| X2
||-----||--------------------||
||-----||--------------------||
||-----||--------------------||

Chorus X4 | Clean:
C# G#

Fill 1 X2 | Distortion:
||----------------||    ||--------------------------------||
||----------------||    ||--------------------------------||
||-3--3-X-3-3-3-3-|| X2 ||-8--8-X-8-8-8-8-----------------||
||-3--3-X-3-3-3-3-||    ||-8--8-X-8-8-8-8--6--6-X-6-6-6-6-||
||-1--1-X-1-1-1-1-||    ||-6--6-X-6-6-6-6--6--6-X-6-6-6-6-||
||----------------||    ||-----------------4--4-X-4-4-4-4-||

Solo | Slight Distortion:
||-4------------1-4-2-1--------------1-4-1/3/4-1/3/4\1/6--||
||---2-1--1/2/4---------4-2-2-1/2/4-----------------------||
||--------------------------------------------------------||
||--------------------------------------------------------||
||--------------------------------------------------------||
||--------------------------------------------------------||

||-1-2-3b4--2-1-2-1---------------------------------------||
||-------------------4-2-4-4--2---------------------------||
||-------------------------------5-3----------------------||
||-----------------------------------3-1------------------||
||---------------------------------------4----------------||
||--------------------------------------------------------||

Fill 2 X2 | Clean:
  C#       C#        G#       G#
||-------4--------6-4-------------------------------------||
||-------6--------6-6--------4--------4-------------------||
||-------6--------6-6--------5--------5-------------------||
||-----6--------6----------6-6------6-6-------------------||
||---4--------4----------6--------6-----------------------||
||-4--------4----------4--------4-------------------------||

Intro Cords X 8:
G# C# C#  C# C# C# C#

Verse 1 X2 | Distortion:
||----------------||    ||--------------------------------||
||----------------||    ||--------------------------------||
||-3--3-X-3-3-3-3-|| X2 ||-8--8-X-8-8-8-8-----------------||
||-3--3-X-3-3-3-3-||    ||-8--8-X-8-8-8-8--6--6-X-6-6-6-6-||
||-1--1-X-1-1-1-1-||    ||-6--6-X-6-6-6-6--6--6-X-6-6-6-6-||
||----------------||    ||-----------------4--4-X-4-4-4-4-||
[ Tab from: http://www.guitartabs.cc/tabs/e/exit_this_side/wasted_tab.html ]
Verse 2 | Slight Distortion:
||-1---||-4-------1----------||
||-----||-----4--------------||
||-----||--------------------|| X2
||-----||--------------------||
||-----||--------------------||
||-----||--------------------||

Chorus X4 | Clean:
C# G#

Fill 1 X2 | Distortion:
||----------------||    ||--------------------------------||
||----------------||    ||--------------------------------||
||-3--3-X-3-3-3-3-|| X2 ||-8--8-X-8-8-8-8-----------------||
||-3--3-X-3-3-3-3-||    ||-8--8-X-8-8-8-8--6--6-X-6-6-6-6-||
||-1--1-X-1-1-1-1-||    ||-6--6-X-6-6-6-6--6--6-X-6-6-6-6-||
||----------------||    ||-----------------4--4-X-4-4-4-4-||

Solo | Slight Distortion:
||-4------------1-4-2-1--------------1-4-1/3/4-1/3/4\1/6--||
||---2-1--1/2/4---------4-2-2-1/2/4-----------------------||
||--------------------------------------------------------||
||--------------------------------------------------------||
||--------------------------------------------------------||
||--------------------------------------------------------||

||-1-2-3b4--2-1-2-1---------------------------------------||
||-------------------4-2-4-4--2---------------------------||
||-------------------------------5-3----------------------||
||-----------------------------------3-1------------------||
||---------------------------------------4----------------||
||--------------------------------------------------------||

Fill 2 X2 | Clean:
  C#       C#        G#       G#
||-------4--------6-4-------------------------------------||
||-------6--------6-6--------4--------4-------------------||
||-------6--------6-6--------5--------5-------------------||
||-----6--------6----------6-6------6-6-------------------||
||---4--------4----------6--------6-----------------------||
||-4--------4----------4--------4-------------------------||

Outro:
G# C# C#  C# C# C# C# X3
G#

Lyrics (Picked this off from the song so some words might be wrong...):

Intro (lyrics after two riffs):
My concerns
are bleeding deeply now
its logical
let me go.

Intro cords

Verse 1:
You never had two times a kill
why don't they get your business
talking back right at you.
Just like a river let it run
in front the average isle begun
doing it if we've nothing but queen.

Verse 2:
Getting to and getting better baby
their serving my favourite tea.
Every wendnesday baby better
everyone except me.

Fill 1

Verse 1:
Drink for love (how does it feel)
I cannot lie it feels unreal
you never get enough when your never in a rush.
Like a river let it flow
I love fashion ever slow.

Chorus:
Wasted (all these things we understand)
and I think I'm falling down.
Wasted (I cannot keep doing this forever)
and I think I'm falling down.
Wasted (All this light, I do need)
and I think I'm falling down.
Wasted (Its not a want, its a need)
and I think I'm falling down.

Fill 1

Verse 1:
You
your sick of the force
your sick of the attitudes
that they must lose.
I
I found a truth
its always disproved
so that it can be proved.

Chorus:
Wasted (all these things we understand)
and I think I'm falling down.
Wasted (I cannot keep doing this forever)
and I think I'm falling down.
Wasted (All this light, I do need)
and I think I'm falling down.
Wasted (Its not a want, its a need)
and I think I'm falling down.

Solo

Fill 2

Fill 2 with lyrics:
(Wasted)
And I think I'm falling down.
(Wasted)
Ya and I know I'm falling down.

Chorus:
(Wasted) Round and round my mind has been
I do not know exactly where I fell.
(And I think I'm falling down.)
(Wasted) In my head I must command
my self control.
(And I think I'm falling down.)
(Wasted) Roll my tong I've had my fun
time to face the consequences.
(And I think I'm falling down.)
(Wasted) I am.
(And I think I'm falling down.)

Outro
Comments