Exit This Side - Simple Wonder Chords & Tabs

 

Simple Wonder Chords & Tabs

Exit This Side Chords & Tabs

Version: 1 Type: Tab 0 ratings
1 star 2 stars 3 stars 4 stars 5 stars
comments

Simple Wonder Tab

   
Exit This Side
Simple Wonder
Transcribed By Ryan Gregg
ryansgregg@hotmail.com

About:
Just bloody fun to play.
I tried to get the lyrics as best as I could too.
(The []'s are where I couldn't figure it out.)
And I could only get half the solo
(the rest was just to fast to follow)
But the rest of the song's there and pretty accurate,
I think.

Legend:
pm = Palm Mute
v  = Vibrato
h  = Hit
p  = Pull
\  = Slid Down
/  = Slid Up

Tunning:
Standard (eBGDAE)

Intro | Distortion:

Intro Riff #1 X1:
e|--------|
B|--------|
G|--------|
D|-6-6----|
A|-6-6----|
E|-4-4-2v-|


Fill | Distortion:

Fill Riff #1 X4:          4th End
e|-----------------|------|---------|
B|-----------------|------|---------|
G|-----------------|------|---------|
D|-----6p5---------|------|---------|
A|-4h6-----4h6-3h4-|------|-6-6-6-6-|
E|-----------------|-X-4v-|-4-4-4-4-|
                          pm-----

Verse | Distortion:

Verse X8:                  4th End      8th End
e|-----------------|------|------------|---|
B|-----------------|------|------------|---|
G|-----------------|------|------------|---|
D|-----6p5---------|------|-4h5h6-(X4)-|-6-|
A|-4h6-----4h6-3h4-|------|------------|-6-|
E|-----------------|-X-4v-|------------|-4-|


Chorus | Distortion:

Chorus Riff #1 X2:
e|---------------------------------------------|
B|---------------------------------------------|
G|-8-8-X-X--X----------------------------------|
D|-8-8-X-X--X-6-5-------8-8-X-X--X-8-8---------|
A|-6-6-X-X--X-----8-6h8-8-8-X-X--X-8-8---------|
E|----------------------6-6-X-X--X-6-6-6h8-6p4-|

                                 2nd End
e|-------------------|----------|---|
B|-------------------|----------|---|
G|-8-8-X---------8-8-|-X--------|---|
D|-8-8-X-8--8-8--8-8-|-X-8--8-8-|-8-|
A|-6-6-X-8--8-8--6-6-|-X-8--8-8-|-8-|
E|-------6--6-6------|---6--6-6-|-6-|


Bridge #1 | Distortion:

Bridge #1 Riff #1 X1:
   D#sus2          F#sus2          C#sus2
e|-----------------------------------------------------|
B|----------6-------------------------------4----------|
G|-----8------8-------------1----------6------6--------|
D|---8---8------8------4------4------6---6------6------|
A|-6-----------------4---4------4--4-------------------|
E|-----------------2-----------------------------------|

   G#sus2          D#sus2          F#sus2
e|-----------------------------------------------------|
B|--------------------------6------------------9-------|
G|----------3----------8------8---------11-------11----|
D|-----6------6------8---8------8----11----11-------11-|
A|---6---6------6--6---------------9-------------------|
E|-4---------------------------------------------------|

   C#sus2                 G#sus2
e|-----------------------------------------------------|
B|-------------------------------------11--------------|
G|-------18-----16--------------13--------13-----------|
D|----18----18-----18--------13----13--------13--------|
A|-16-----------------18--11---------------------------|
E|-----------------------------------------------------|

Bridge #1 Riff #2 X2:
e|------------------------------------------------|
B|------------------------------------------------|
G|-8-8-X-X--X-8-8-X-X--X-11-11-X-X--X-11-11-X-X---|
D|-8-8-X-X--X-8-8-X-X--X-11-11-X-X--X-11-11-X-X---|
A|-6-6-X-X--X-6-6-X-X--X--9--9-X-X--X--9--9-X-X---|
E|------------------------------------------------|
[ Tab from: http://www.guitartabs.cc/tabs/e/exit_this_side/simple_wonder_tab.html ]
                                               1st End
e|--------------------------------------------|---|
B|--------------------------------------------|---|
G|-X-6-6-X-X--X-6-6-X-X-----------------------|---|
D|-X-6-6-X-X--X-6-6-X-X--X-6-6-X-X--X-6-6-X-X-|-X-|
A|-X-4-4-X-X--X-4-4-X-X--X-6-6-X-X--X-6-6-X-X-|-X-|
E|-----------------------X-4-4-X-X--X-4-4-X-X-|-X-|


Solo | Distortion:

Solo Riff #1 X1:
e|--------------------------11v--------16--16p14-17-14-|
B|-------------------------------16-14-----------------|
G|-11-(x32?)-15-13\11/13\11----------------------------|
D|-----------------------------------------------------|
A|-----------------------------------------------------|
E|-----------------------------------------------------|

e|-----------------------------------------------------|
B|-----------------------------------------------------| E-mail me
G|-----------------------------------------------------| if you
D|-----------------------------------------------------| get the
A|-----------------------------------------------------| rest.
E|-----------------------------------------------------|


Bridge #2 | Distortion:

Bridge #2 Riff #1 X1:
e|--------------------------------------------|
B|-0-6-0-7-0-9-0-7-0-6v--0-6-0-7-0-6-0-6-0-4v-|
G|-4-----------------------4------------------|
D|-4---------------------4-4------------------|
A|-2---------------------4-2------------------|
E|-----------------------2--------------------|

e|-----------------------7-5-3---3------------|
B|-0-6-0-7-0-9-0-7-0-6v--------6---6-4-3-4-3--|
G|-4-----------------------4------------------|
D|-4---------------------4-4------------------|
A|-2---------------------4-2------------------|
E|-----------------------2--------------------|

e|---------------------------|
B|---------------------------|
G|-5-4-4v----4---------6-----|
D|---------4-4---------6-----|
A|---------4-2-4-6-4h6-4-6-8-|
E|---------2-----------------|


Misc | Distortion:

Misc Riff #1 X1:
e|-------|
B|-------|
G|-6-----|
D|-6--6--|
A|-4--6--|
E|----4--|
   In-Side


Outro | Distortion:

Outro Riff #1 X1:
e|---------------|
B|---------------|
G|---------------|
D|-6-X-6-X-6-6\4-|
A|-6-X-6-X-6-6\4-|
E|-4-X-4-X-4-4\2-|

Intro

Fill Riff #1:
Go!

Verse:
You are the image of the mad man's mind.
So damn deluded cause you love disguise.
All that you ever did,
is I'm not the one that you.

You time your [boobies?] it a pocket full of trees.
What's the point if the voice can't scream?
Fearing my ACME gun,
it's always swept away into the setting sun.

Chorus:
Is it any wonder why you lie?
You seem to be, sukin, the life of me.
Is it true that the lights of [Prong?] let you go, no no?
You fear the world, and it's starting to show now.

Fill Riff #1:

Verse:
The phoney [caters] are the method man's pride.
This simple games is probably never gonna die.
But I gave my [Grammy night].
It's a social disaster.

Get up, get out.  Never really gonna get
you own style and self respect.
Living for [moneys swell].
But you'll never know the grief because you don't know how to hit.

Chorus

Bridge #1:
Do you?  (Do you?)  (Do You?)
Woah.
(Is it true?  Is it me?)  [When I say?] do you wonder?
(It could have been what will never be?)  [].
([])  Can you feel the anger?
([] empty mind.)

Solo (With Bridge #1 Riff #2)

Bridge #2:
We are the [] boys.
Ya the [].
Will you see
What I can see?

Fill Riff #1:
Inside my head.

Chorus

Verse Riff #1:
That's the voices ([]).
That's the voices (inside). Misc Riff #1
That's the voices (inside my head).
Comments