Exit 21 - Hard Times Chords & Tabs

 

Hard Times Chords & Tabs

Exit 21 Chords & Tabs

Version: 1 Type: Bass Tab 0 ratings
1 star 2 stars 3 stars 4 stars 5 stars
comments

Hard Times Bass Tab

   
Exit 21 - Hard Times
Tabbed By: Matt Lapierre
EMail: viperflame_1020@hotmail.com


Verse
G
D
A--------------3-3-333-33-3----------2-2-222-22
E-0-0-000-00-0-------------3-3-333-33  repeat 4x
[ Tab from: http://www.guitartabs.cc/tabs/e/exit_21/hard_times_btab.html ]
Chorus
G
D---------------------5-55-7-77-7h9
A------------33-333-3-------------- 
E-00-03-00-00----------------------

During Guitar Solo
G
D---------------------5-55-7-77-7h9
A------------33-333-3-------------- 
E-00-03-00-00---------------------- x4
then
G
D
A--------------3-3-333-33-3----------2-2-222-22
E-0-0-000-00-0-------------3-3-333-33  x2

Then thats the whole song
Comments