Exit - Lets Go To Haiti Chords & Tabs

 

Lets Go To Haiti Chords & Tabs

Exit Chords & Tabs

Version: 1 Type: Tab 0 ratings
1 star 2 stars 3 stars 4 stars 5 stars
comments

Lets Go To Haiti Tab

Track: Let's Go To Haiti
Band: The Exit
Album: Home For An Island
One who tabs: clampdown	

Ok hopefully, this will be the frist of many Exit tabs I can dish out.

Tab Key:
h	=	Hammer on
p	=	pull off
/	=	slide up
~	=	vibrato
x	=	Mute string
<3>     =       Harmonic 3rd fret

INTRO (0:01) (Volume swell)
E|---------|
B|---------|
G|--11/8~--|
D|--x-/x~--|
A|--9-/6~--|
E|---------|

Riff 1 (0:09)
E|------------------------|
B|------------------------|
G|--x--x--8-------6-------|
D|--x--x--8-8-8-8-6-6-6-6-| (x alot)
A|--x--x--6-8-8-8-4-6-6-6-|
E|----------6-6-6---4-4-4-|

Fill 1 (0:17) (While Ben plays Riff 1, this little thing comes in)

E|------|
B|--7/4-|
G|------|
D|------|
A|------|
E|------|

Riff 2 (0:26) (If you listen very carefully, the sound of the riff is slightly
different, this is why, Ben plays more notes on the higher strings... I think)

E|---------------------|
B|----7--------6-------|
G|----8--------6-------|
D|----8-8-8-8--6-6-6-6-|
A|----6-8-8-8--4-6-6-6-|
E|------6-6-6----4-4-4-| (x a whole lot)

Riff 3 (0:52)

E|--------------------------|
B|--------------------------|
G|--/11~----11-11~----11-11-|
D|--/9~-----9--9~-----9--9--|
A|--/9~-----9--9~-----9--9--|
E|--------------------------|

Back to Riff 2, then "GUNNAR!" (1:05)
E|--------|
B|--------|
G|--8~----|
D|--x~----|
A|--6~----|
E|--------|

(1:08)
E|-------------------------|
B|--6h7-6~-----4~----2-4--4|
G|--6-6-6~-----5~----3-3--5|
D|-------------------------|
A|-------------------------|
E|-------------------------|
[ Tab from: http://www.guitartabs.cc/tabs/e/exit/lets_go_to_haiti_tab.html ]
(1:14) Then, the sweetest riff throughout the land
E|----------------------------------|
B|------------------------7x7x7x7/9-|
G|---8x888--8x888-----8-6-6x6x6x6/8-|
D|----------------6-8---------------| 2x (second one without the 7/9
A|--6------6------------------------|				 6/8)
E|----------------------------------|

(1:23)
E|-----------------------------------|
B|-----------------------------------|
G|--x--x---<3><3><3><3>--8/-x-x--x-x-|
D|--x--x---<3><3><3><3>--x/-x-x--x-x-|
A|--x--x---<3><3><3><3>--6/-x-x--x-x-|
E|--x--x--------------------x-x--x-x-|

(1:33) "Let's Go to Haiti"
E|------------------------------------------|
B|--7-7-7-7-7--6-6-6-6-7--6-6-6-6-7-6-6-6-6-| Repeat until...
G|--8-8-8-8-8--6-6-6-6-6--4-4-4-4-4-6-6-6-6-|
D|------------------------------------------| (I think I got the right
A|------------------------------------------|  idea, just not the right
E|------------------------------------------|   notes)

(1:48) (This part is continued from 1:33)
E|-----------------|
B|--9--9--9--9--9--|
G|--11-11-11-11-11-|
D|-----------------|
A|-----------------|
E|-----------------|


(1:50)
E|-------------|
B|-------------|
G|--11~-11~-11~|
D|--9~--9~--9~-|
A|--9~--9~--9~-|
E|-------------|

(1:59)
E|-------------------------|
B|--7-7-7-7-7-6-6-6-6------|
G|--8-8-8-8-8 6-6-6-6-11~--|
D|--8-8-8-8-8-6-6-6-6-x~---|
A|--6-6-6-6-6-4-4-4-4-9~---|
E|-------------------------|

(2:05) Ben kicks out the flanger and this fill drapes over
E|------9~--6~--|
B|----7-----7~--|
G|-/8-------8~--|
D|--------------|
A|--------------|
E|--------------|

Back to Riff 1 then...

(2:25) End
E|--------|
B|--7///--|
G|--8///--|
D|--8///--|
A|--6///--|
E|--------|

The Exit links

www.theexitrock.com
www.purevolume.com/theexit
Comments