Exilia - Stop Playing God Chords & Tabs

 

Stop Playing God Chords & Tabs

Exilia Chords & Tabs

Version: 1 Type: Tab 0 ratings
1 star 2 stars 3 stars 4 stars 5 stars
comments

Stop Playing God Tab

   
-------------------------------------------------------------------------------
			    Stop playing god - Exilia
-------------------------------------------------------------------------------
Tabbed by:Jim #4
Email: Megalomaniac@grin.de
Tuning:Drop-B


Another song of this kickass band. I wrote the order at the bottom.
There are two Guitars but you can play it with one.


Guitar 1
Intro 1 (palm muted)
C#|-------------------------------------------------------|
G#|-------------------------------------------------------|
E |-------------------------------------------------------|
B |-2-4-4-2-4-2-4-2-5-5-----------------------------------|
F#|-------------------------------------------------------|
B |-------------------------------------------------------|

Guitar 1
Intro 2 
C#|----------------------------------------------|
G#|----------------------------------------------|
E |----------------------------------------------|
B |-------4-----5---5-------4-----5-7-9----------|
F#|----------------------------------------------|
B |-4-4-4---4-4---4----4-4-4--4-4----------------|
[ Tab from: http://www.guitartabs.cc/tabs/e/exilia/stop_playing_god_tab.html ]
Guitar 2 
intro (let ring)
C#|------------7----6-------------------------------------|
G#|-7----8---------------7--------------------------------|
E |-------------------------------------------------------|
B |-------------------------------------------------------|
F#|-------------------------------------------------------|
B |-------------------------------------------------------|

Chorus
C#|-------------------------------------------------------|
G#|--------------------3----------------------------------|
E |-6-6-6-6-6--8-8--9--2--9-9-9-8--4--6-------------------|
B |-4-4-4-4-4--6-6--7--0--7-7-7-6--2--4-------------------|
F#|-4-4-4-4-4--6-6--7--0--7-7-7-6--2--4-------------------|
B |-4-4-4-4-4--6-6--7--0--7-7-7-6--2--4-------------------|


Guitar 1
verse
C#|-------------------------------------------------------|
G#|-------------------------------------------------------|
E |-------------------------------------------------------|
B |-4-4----2/4----4---------------------------------------|
F#|-4-4----2/4----4---------------------------------------|
B |-4-4----2/4----4---------------------------------------|

Guitar 2
Verse 
C#|-------------------------------------------------------|
G#|-------------------------------------------------------|
E |-------------------------------------------------------|
B |-2-4-4-2-5-2-4-2-5-2-4-2-5-5-5-------------------------|
F#|-------------------------------------------------------|
B |-------------------------------------------------------|


Guitar 1 Intro 1, Guitar 2 Intro
Guitar 1 Intro 2, Guitar 2 intro
Guitar 1&2 verse
Guitar 1&2 chorus
Guitar 1 Intro 2, Guitar 2 intro
Guitar 1&2 verse
Guitar 1&2 chorus
Guitar 2 Intro
Guitar 1 Intro 2
Guitar 1&2 chorus
Guitar 2 intro

That's it! Exilia rulez!! Have fun!!!
Comments