Exilia - Cant Break Me Down Chords & Tabs

 

Cant Break Me Down Chords & Tabs

Exilia Chords & Tabs

Version: 3 Type: Tab 0 ratings
1 star 2 stars 3 stars 4 stars 5 stars
comments

Cant Break Me Down Tab

   
-------------------------------------------------------------------------------
			Can't break me down - Exilia
-------------------------------------------------------------------------------
Tabbed by: Scissor
Email: der.da@arcor.de

(please send corrections to me if it's wrong...) 

Tuning: drop D (D A D G B E)

intro/chorus: (i put just the chords)
e|---------------------------------------------------------------------------|
B|---------------------------------------------------------------------------|
G|---------------------------------------------------------------------------|
D|-2--0--7--10--2--0--7--10-12--2--0--7--10--2--0--9-------------------------|
A|-2--0--7--10--2--0--7--10-12--2--0--7--10--2--0--7  hold  -----------------|
D|-2--0--7--10--2--0--7--10-12--2--0--7--10--2--0--7-------------------------|


(i think this isn't played by a guitar, but this is the tab for it anyway... 
i use a chorus effect on a high level!!)
e|---------------------------------------------------------------------------|
B|-12-7-8--8-7------12-7-8----12-7-8--8-7----12-8-7--------------------------|
G|-------------7--------------------------7----------------------------------|
D|---------------------------------------------------------------------------|
A|---------------------------------------------------------------------------|
D|---------------------------------------------------------------------------|

verse:
e|---------------------------------------------------------------------------|
B|---------------------------------------------------------------------------|
G|----------5-2------5-2-------------------5-2----------------------------5-2|
D|2-3-2-0-2-5-2-12/3-5-2--2-3-2-0-2--2-0-2-5-2-2-3-2-0-2--2-0-2-2-3-2-0-2-5-2|
A|2-3-2-0-2-3-0-12/3-3-0--2-3-2-0-2--2-0-2-3-0-2-3-2-0-2--2-0-2-2-3-2-0-2-3-0|
D|2-3-2-0-2-----12/3------2-3-2-0-2--2-0-2-----2-3-2-0-2--2-0-2-2-3-2-0-2----|
[ Tab from: http://www.guitartabs.cc/tabs/e/exilia/cant_break_me_down_tab_ver_3.html ]
pre-chorus:
e|---------------------------------------------------------------------------|
B|---------------------------------------------------------------------------|
G|--------------------4-4-5-5-7----------------------4-4--5------------------|
D|-2-3-2-0-2--2-0-2-0-4-4-5-5-7--2-3-2-0-2--2-0-2-0--4-4--5--12/3------------|
A|-2-3-2-0-2--2-0-2-0-2-2-3-3-5--2-3-2-0-2--2-0-2-0--2-2--3--12/3------------|
D|-2-3-2-0-2--2-0-2-0------------2-3-2-0-2--2-0-2-0----------12/3------------|

chorus:
e|---------------------------------------------------------------------------|
B|---------------------------------------------------------------------------|
G|---------------------------------------------------------------------------|
D|-2--0--7--10--2--0--7--10-12--2--0--7--10--2--0--10-12---------------------|
A|-2--0--7--10--2--0--7--10-12--2--0--7--10--2--0--10 12---------------------|
D|-2--0--7--10--2--0--7--10-12--2--0--7--10--2--0--10-12---------------------|


verse 1x

pre-chorus 1x

chorus 1x

bridge:
e|---------------------------------------------------------------------------|
B|---------------------------------------------------------------------------|
G|---------------------------------------------------------------------------|
D|-2--4--5--7--|-------2--4--9-----------------------------------------------|
A|-2--4--5--7--|- 5x --2--4--7- hold ----------------------------------------|
D|-2--4--5--7--|-------2--4--7-----------------------------------------------|

e|---------------------------------------------------------------------------|
B|---------------------------------------------------------------------------|
G|---------------------------------------------------------------------------|
D|-7---10--12----------------------------------------------------------------|
A|-7---10--12----------------------------------------------------------------|
D|-7---10--12----------------------------------------------------------------|

chorus 2x


so that's it... i hope you'll enjoy it... exilia rocks!

| /  slide up
| \  slide down
| h  hammer-on
| p  pull-off
| ~  vibrato
| +  harmonic
| x  Mute note
===============================================================================
Comments