Exilia - Cant Break Me Down Chords & Tabs

 

Cant Break Me Down Chords & Tabs

Exilia Chords & Tabs

Version: 2 Type: Tab 0 ratings
1 star 2 stars 3 stars 4 stars 5 stars
comments

Cant Break Me Down Tab

Artist: Exilia
Song: Can't Break Me Down
Album: Can't Break Me Down EP (2005) and Unleashed (Special Edition) (2005)
Tabbed by: FerriuS

Tuning: Drop D

Simple but awesome song, i listen to it all the time! It seems to be i'm
second Exilia tabber here (hi Jim #4!). Exilia is one of my favorite bands
and i'm going to do more their tabs in future, especially for my favorite
songs. So here's the tab...

Intro:
Guitar 1
e|-----------------------------------------------|
B|-----------------------------------------------|
G|-----------------------------------------------|
D|--2-2-2-2--0-0-0-0-0--7-7-7-7--10-10-10-10-10--|
A|--2-2-2-2--0-0-0-0-0--7-7-7-7--10-10-10-10-10--|
D|--2-2-2-2--0-0-0-0-0--7-7-7-7--10-10-10-10-10--|

Guitar 2
e|-----19--14--15-----------------14-------------|
B|------------------------------------15---------|
G|-----------------------------------------------|
D|-----------------------------------------------|
A|-----------------------------------------------|
D|-----------------------------------------------|

Guitar 1
e|--------------------------------------------------------|
B|--------------------------------------------------------|
G|--------------------------------------------------------|
D|--2-2-2-2--0-0-0-0-0--7-7-7-7--10-10-10-10-12-12-12-12--|
A|--2-2-2-2--0-0-0-0-0--7-7-7-7--10-10-10-10-12-12-12-12--|
D|--2-2-2-2--0-0-0-0-0--7-7-7-7--10-10-10-10-12-12-12-12--|

Guitar 2
e|-----19--14--15------------------------------------|
B|---------------------------------------------------|
G|---------------------------------------------------|
D|---------------------------------------------------|
A|---------------------------------------------------|
D|---------------------------------------------------|

Guitar 1
e|-----------------------------------------------|
B|-----------------------------------------------|
G|-----------------------------------------------|
D|--2-2-2-2--0-0-0-0-0--7-7-7-7--10-10-10-10-10--|
A|--2-2-2-2--0-0-0-0-0--7-7-7-7--10-10-10-10-10--|
D|--2-2-2-2--0-0-0-0-0--7-7-7-7--10-10-10-10-10--|

                          v--Let ring
e|---------------------------|
B|---------------------------|
G|------------------------9--|
D|--2-2-2-2-2--0-0-0-0-0--9--|
A|--2-2-2-2-2--0-0-0-0-0--7--|
D|--2-2-2-2-2--0-0-0-0-0--7--|


Verse:
e|---------------------------------------------------|
B|---------------------------------------------------|
G|---------------------------------------------------|
D|--2-3-2-0-2--2-2-10-10-10-10-7-7-7-7---------------|
A|--2-3-2-0-2--2-2-10-10-10-10-7-7-7-7---------------|
D|--2-3-2-0-2--2-2-10-10-10-10-7-7-7-7---------------|

e|--------------|
B|--------------|
G|--------------|
D|--7\---10--7--|
A|--7\---10--7--|
D|--7\---10--7--|

e|--------------------------------------------|
B|--------------------------------------------|
G|--------------------------------------------|
D|--2-3-2-0-2--2--2-2----10-10-10-10-7-7-7-7--|
A|--2-3-2-0-2--2--2-2----10-10-10-10-7-7-7-7--|
D|--2-3-2-0-2--2--2-2----10-10-10-10-7-7-7-7--|

e|-----------------------------------------------------------|
B|-----------------------------------------------------------|
G|-----------------------------------------------------------|
D|--2-3-2-0-2--2--2-2----2-3-2-0-2--2-2-10-10-10-10-7-7-7-7--|
A|--2-3-2-0-2--2--2-2----2-3-2-0-2--2-2-10-10-10-10-7-7-7-7--|
D|--2-3-2-0-2--2--2-2----2-3-2-0-2--2-2-10-10-10-10-7-7-7-7--|

Pre-chorus:
e|---------------------------------------------------------------|
B|---------------------------------------------------------------|
G|---------------------------------------------------------------|
D|--2-3-2-0-2--2--3-2-0-2--7-7-7-7-7-7-7-7-10-10-10-10-10-10-10--|
A|--2-3-2-0-2--2--3-2-0-2--7-7-7-7-7-7-7-7-10-10-10-10-10-10-10--|
D|--2-3-2-0-2--2--3-2-0-2--7-7-7-7-7-7-7-7-10-10-10-10-10-10-10--|
[ Tab from: http://www.guitartabs.cc/tabs/e/exilia/cant_break_me_down_tab_ver_2.html ]
e|--------------------------------------------------|
B|--------------------------------------------------|
G|--------------------------------------------------|
D|--2-3-2-0-2--2--3-2-0-2--7-7-7-7-7-7-7-7-10--10\--|
A|--2-3-2-0-2--2--3-2-0-2--7-7-7-7-7-7-7-7-10--10\--|
D|--2-3-2-0-2--2--3-2-0-2--7-7-7-7-7-7-7-7-10--10\--|

Chorus is same as intro, except two last notes in second guitar
(hear the song and you'll understand)

Verse
Chorus

Bridge
e|--------------|
B|--------------|
G|--------------|
D|--2--4--5--7--| 2x
A|--2--4--5--7--|
D|--2--4--5--7--|

Guitar 1
e|-----------------------------------|
B|-----------------------------------|
G|-----------------------------------|
D|--2-2-2-4-4-4-4-4-5-5-5-7-7-7-7-7--| 2x
A|--2-2-2-4-4-4-4-4-5-5-5-7-7-7-7-7--|
D|--2-2-2-4-4-4-4-4-5-5-5-7-7-7-7-7--|

Guitar 2
e|--14-12-14-12-14-12-15br--14-12-14-12-14-12-15br---|
B|---------------------------------------------------|
G|---------------------------------------------------|
D|---------------------------------------------------|
A|---------------------------------------------------|
D|---------------------------------------------------|

e|--14-12-14-12-14-12-15br--14-12-14-12-14-12-----------|
B|--------------------------------------------15-14-12--|
G|------------------------------------------------------|
D|------------------------------------------------------|
A|------------------------------------------------------|
D|------------------------------------------------------|

End of bridge:        v--Let ring
e|------------------------|
B|------------------------|
G|---------------------9--|
D|--2--4--5--7---2--4--9--| It's hard to hear, maybe there are
A|--2--4--5--7---2--4--7--| multiple strums, except the last chord
D|--2--4--5--7---2--4--7--|

e|-----------------|
B|-----------------|
G|-----------------|
D|--7--7/10--7/10--| 2x
A|--7--7/10--7/10--|
D|--7--7/10--7/10--|
...Down, you can push me around...

Chorus x1

Then (don't know how to call this part):
Guitar 1
e|-----------------------------------------------|
B|-----------------------------------------------|
G|-----------------------------------------------|
D|--2-2-2-2--0-0-0-0-0--7-7-7-7--10-10-10-10-10--|
A|--2-2-2-2--0-0-0-0-0--7-7-7-7--10-10-10-10-10--|
D|--2-2-2-2--0-0-0-0-0--7-7-7-7--10-10-10-10-10--|

e|--------------------------------------------------------|
B|--------------------------------------------------------|
G|--------------------------------------------------------|
D|--2-2-2-2--0-0-0-0-0--7-7-7-7--10-10-10-10-12-12-12-12--|
A|--2-2-2-2--0-0-0-0-0--7-7-7-7--10-10-10-10-12-12-12-12--|
D|--2-2-2-2--0-0-0-0-0--7-7-7-7--10-10-10-10-12-12-12-12--|

Guitar 2 (kicks in with second bar above)
e|--14-12-14-12-14-12-15br--14-12-14-12-14-12-15br---|
B|---------------------------------------------------|
G|---------------------------------------------------|
D|---------------------------------------------------|
A|---------------------------------------------------|
D|---------------------------------------------------|

Outro:
Guitar 1
                           v--Let ring
e|-----------------------------|
B|-----------------------------|
G|-----------------------------|
D|--2--0--7--10---2--0--9--10--|
A|--2--0--7--10---2--0--7--10--|
D|--2--0--7--10---2--0--7--10--|

Guitar 2
e|--14-12-14-12-14-12-15br--14-12-14-12-14-12-15br---|
B|---------------------------------------------------|
G|---------------------------------------------------|
D|---------------------------------------------------|
A|---------------------------------------------------|
D|---------------------------------------------------|
                                     v--Let ring
e|--14-12-14-12-14-12-15br--14-12-14-12--|
B|---------------------------------------|
G|---------------------------------------|
D|---------------------------------------|
A|---------------------------------------|
D|---------------------------------------|

| /  - slide up
| \  - slide down
| h  - hammer-on
| p  - pull-off
| ~  - vibrato
| *  - harmonic
| x  - mute note
| pb - pre-bend (bend string before playing it)
| b  - bend string
| r  - release string
| br - bend string and release immediately

\m/ Exilia Roxx! \m/
Comments