Exilia - Cant Break Me Down Chords & Tabs

 

Cant Break Me Down Chords & Tabs

Exilia Chords & Tabs

Version: 1 Type: Tab 0 ratings
1 star 2 stars 3 stars 4 stars 5 stars
comments

Cant Break Me Down Tab

   
-------------------------------------------------------------------------------
			     Cant break me down - Exilia
-------------------------------------------------------------------------------
Tabbed by: Jim #4
Email:Megalomaniac@grin.de

Tuning: Drop-D

Another kickass song from Exilia. Pretty Easy.

These are the riffs. You'll have to figure the order out by yourself, but that shouldnt be hard.


Intro/Chorus 
[ Tab from: http://www.guitartabs.cc/tabs/e/exilia/cant_break_me_down_tab.html ]
e|-----------------------------------------|
B|-----------------------------------------|
G|-----------------------------------------|
D|-2-2-2-2-2-0-0-0-0-0-7-7-7-7-7-10-10-10--|
A|-2-2-2-2-2-0-0-0-0-0-7-7-7-7-7-10-10-10--|
D|-2-2-2-2-2-0-0-0-0-0-7-7-7-7-7-10-10-10--|

Verse
e|-------------------------------------------------------|
B|-------------------------------------------------------|
G|-------------------------------------------------------|
D|------------------------------------------------5--2---|
A|-2-3-2-0-2--2-3-2-0-2-----2-3-2-0-2--2-3-2-0-2--3--0---|
D|-2-3-2-0-2--2-3-2-0-2-----2-3-2-0-2--2-3-2-0-2---------|

Fill
e|--------------------|
B|--------------------|
G|-4--6---7--9--------|
D|-2--4---5--7--------|
A|-2--4---5--7--------|
D|-2--4---5--7--------|
let ring (2 times i think, then strum the chords)


Thats it. Exilia rulez. Have fun.
Comments