Exies - Ugly Chords & Tabs

 

Ugly Chords & Tabs

Exies Chords & Tabs

Version: 9 Type: Tab 0 ratings
1 star 2 stars 3 stars 4 stars 5 stars
comments

Ugly Tab

Tunning: Guitar Eb (D# A# D# G# B# E#)

this is my first tab but it sound pretty close so hope u enjoy

P.M - Palm Mute

Intro/Verse
Eb--4-4-4-4--------------------------------||
Bb--7-7-7-7--4-4-4-4---5--5--5-5--5-5-5-5--||
Gb--6-6-6-6--6-6-6-6---6--6--6-6--4-4-4-4--||
Db--4-4-4-4--6-6-6-6---7--7--7-7--0-0-0-0--|| X5
Ab--4-4-4-4--4-4-4-4---0--0--0-0--0-0-0-0--||
Db-----------4-4-4-4-----------------------||

Bridge                        P.M P.M
Eb---------------2-2-2-2------2-2-2-2--|
Bb--5-5-5-5-5-5--3-3-3-3------2-2-2-2--|
Gb--4-4-4-4-4-4--2-2-2-2------2-2-2-2--|
Db--2-2-2-2-2-2--4-4-4-4------2-2-2-2--|
Ab--2-2-2-2-2-2--5-5-5-5------2-2-2-2--|
Db----------------------------2-2-2-2--|

Chorus1
Eb--------------------------------------------||
Bb--------------------------------------------||
Gb---------------------------------4--4--4-6--||
Db--4---4-----7---7----2--2--2--2--4--4--4-6--|| 3X
Ab--4---4-----7---7----2--2--2--2--2--2--2-4--||
Db--2---2-----5---5----0--0--0--0-------------||

Eb---------------------------------------|
Bb---------------------------------------|
Gb----------------------------7-7-7-7-6--|
Db--4--4--4--4---7--7--7--7---7-7-7-7-6--|
Ab--4--4--4--4---7--7--7--7---5-5-5-5-4--|
Db--2--2--2--2---5--5--5--5--------------|
[ Tab from: http://www.guitartabs.cc/tabs/e/exies/ugly_tab_ver_9.html ]
Eb--4-4-4-4--------------------------------||
Bb--7-7-7-7--4-4-4-4---5--5--5-5--5-5-5-5--||
Gb--6-6-6-6--6-6-6-6---6--6--6-6--4-4-4-4--||
Db--4-4-4-4--6-6-6-6---7--7--7-7--0-0-0-0--|| X2
Ab--4-4-4-4--4-4-4-4---0--0--0-0--0-0-0-0--||
Db-----------4-4-4-4-----------------------||

Repeat Verse

Chorus2 
Eb--------------------------------------------||
Bb--------------------------------------------||
Gb---------------------------------4--4--4-6--||
Db--4---4-----7---7----2--2--2--2--4--4--4-6--|| 3X
Ab--4---4-----7---7----2--2--2--2--2--2--2-4--||
Db--2---2-----5---5----0--0--0--0-------------||

Eb-----------------------------------------------------|
Bb--------------------------------------------------2--|
Gb-----------------------------------------4--4--4--2--|
Db--4--4--4--4---7--7--7--7---2--2--2--2---4--4--4--0--|
Ab--4--4--4--4---7--7--7--7---2--2--2--2---2--2--2-----|
Db--2--2--2--2---5--5--5--5---0--0--0--0---------------|

Verse2 (Climax)
Eb--------------------------------------------------||
Bb--------------------------------------------------||
Gb--7--7--7--7--7--7--7--7---4--4--4--4--4--4--4-6--||
Db--7--7--7--7--7--7--7--7---4--4--4--4--4--4--4-6--|| X3
Ab--5--5--5--5--5--5--5--5---2--2--2--2--2--2--2-4--||
Db--------------------------------------------------||

Eb-----------------------------------------||
Bb-----------------------------------------||
Gb--7--7--7--7--7--7--7--7---9--9--9--9-6--||
Db--7--7--7--7--7--7--7--7---9--9--9--9-6--|| X3
Ab--5--5--5--5--5--5--5--5---7--7--7--7-4--||
Db-----------------------------------------||

Repeat Chorus1

End
Comments