Exies - Ugly Chords & Tabs

 

Ugly Chords & Tabs

Exies Chords & Tabs

Version: 8 Type: Tab 0 ratings
1 star 2 stars 3 stars 4 stars 5 stars
comments

Ugly Tab

Email:guitarfreak384@yahoo.com
Tuning:Drop D (DADGBE)

listen to get strumming pattern

   Verse/Intro:
E|---------------------------------------------------------------|
B|---------------------------------------------------------------|
G|--10-------5-------5-------3-----------------------------------|
D|--10--x4---5--x4---6--x4---3--x2-------------------------------|
A|---8-------3-------4-------1-----------------------------------|
D|---------------------------------------------------------------|

   Pre chorus:
E|---------------------------------------------------------------|
B|---------------------------------------------------------------|
G|--8-------6----------------------------------------------------|
D|--8--x6---6--x4------------------------------------------------|
A|--6-------4----------------------------------------------------|
D|---------------------------------------------------------------|

   Chorus:
E|---------------------------------------------------------------|
B|---------------------------------------------------------------|
G|------------------8--------------------------------------------|
D|--3-------6-------8--x5---8-------10---------------------------|
A|--3--x2---6--x2---6-------8--x4---10---------------------------|
D|--3-------6---------------8-------10---------------------------|

E|---------------------------------------------------------------|
B|---------------------------------------------------------------|
G|------------------8--------------------------------------------|
D|--3-------6-------8--x5---8-------11---------------------------|
A|--3--x2---6--x2---6-------8--x4---11---------------------------|
D|--3-------6---------------8-------11---------------------------|

E|---------------------------------------------------------------|
B|---------------------------------------------------------------|
G|------------------8--------------------------------------------|
D|--3-------6-------8--x5---8-------10---------------------------|
A|--3--x2---6--x2---6-------8--x4---10---------------------------|
D|--3-------6---------------8-------10---------------------------|
[ Tab from: http://www.guitartabs.cc/tabs/e/exies/ugly_tab_ver_8.html ]
E|---------------------------------------------------------------|
B|---------------------------------------------------------------|
G|---------------------------------------------------------------|
D|--3-------6-------11-------10----------------------------------|
A|--3--x4---6--x4---11--x5---10----------------------------------|
D|--3-------6-------11-------10----------------------------------|


E|---------------------------------------------------------------|
B|---------------------------------------------------------------|
G|---------------------------------------------------------------|
D|--3-------6-------1-------8------------------------------------|
A|--3--x4---6--x4---1--x4---8--x4--------------------------------|
D|--3-------6-------1-------8------------------------------------|
  *play this at the end of the 2nd chorus

   Breakdown:
E|---------------------------------------------------------------|
B|---------------------------------------------------------------|
G|---------------------------------------------------------------|
D|--11--------8-------2------------------------------------------|
A|--11--x10---8--x8---2------------------------------------------|
D|--11--------8-------2------------------------------------------|

E|---------------------------------------------------------------|
B|---------------------------------------------------------------|
G|--------------------9------------------------------------------|
D|--11--------8-------9------------------------------------------|
A|--11--x10---8--x8---7------------------------------------------|
D|--11--------8--------------------------------------------------|

E|---------------------------------------------------------------|
B|---------------------------------------------------------------|
G|---------------------------------------------------------------|
D|--11--------8-------2------------------------------------------|
A|--11--x10---8--x8---2------------------------------------------|
D|--11--------8-------2------------------------------------------|

E|---------------------------------------------------------------|
B|---------------------------------------------------------------|
G|---------------------------------------------------------------|
D|--11--------13-------10----------------------------------------|
A|--11--x10---13--x5---10----------------------------------------|
D|--11--------13-------10----------------------------------------|
Comments