Exies - Ugly Chords & Tabs

 

Ugly Chords & Tabs

Exies Chords & Tabs

Version: 6 Type: Tab 0 ratings
1 star 2 stars 3 stars 4 stars 5 stars
comments

Ugly Tab

   
----------------------------------------------------------------------------                              
Ugly - The Exies                          
----------------------------------------------------------------------------
Tabbed by: Lilmutt15
Email: www.soccermudd@yahoo.com 

Tuning: Dropped D (D,A,D,G,B,E)

Intro: x2
e|------------------------------------------|
B|------------------------------------------|
G|--5--5--5---------------------------------|
D|--5--5--5--5-5--5--5--6--6--6--8-8--8--8--| 
A|--3--3--3--5-5--5--5--6--6--6--8-8--8--8--|
D|-----------5-5--5--5--6--6--6--8-8--8--8--| 

Verse #1 x3/#2 x3:
e|------------------------------------------|
B|------------------------------------------|
G|--5--5--5---------------------------------|
D|--5--5--5--5-5--5--5--6--6--6--8-8--8--8--| 
A|--3--3--3--5-5--5--5--6--6--6--8-8--8--8--|
D|-----------5-5--5--5--6--6--6--8-8--8--8--| 

Pre Chorus:
e|---------------------------------------------|
B|---------------------------------------------|
G|--8--8--8--8-8--8--6--6--6-6-----------------|
D|--8--8--8--8-8--8--6--6--6-6----15-15-15-15--| 
A|--6--6--6--6-6--6--4--4--4-4----15-15-15-15--|
D|--------------------------------15-15-15-15--|

Chorus: (Distorted) x3
e|------------------------------| 
B|------------------------------| 
G|------------------------------| 
D|--3-3--6-6--1-1-1-1-8-8-8/10--| 
A|--3-3--6-6--1-1-1-1-8-8-8/10--| 
D|--3-3--6-6--1-1-1-1-8-8-8/10--| 
[ Tab from: http://www.guitartabs.cc/tabs/e/exies/ugly_tab_ver_6.html ]
Post Chorus: (Distorted)             2ND Post Chorus: (Distorted)
e|-----------------------------|     e|-----------------------------------|
B|-----------------------------|     B|-----------------------------------|
G|-----------------------------|     G|-----------------------------------|
D|--3-3-3-3-6-6-6-6-1-1-1-1h8--|     D|--3-3-3-3-6-6-6-6-1-1-1-1-8-8-8-8--|
A|--3-3-3-3-6-6-6-6-1-1-1-1h8--|     A|--3-3-3-3-6-6-6-6-1-1-1-1-8-8-8-8--|
D|--3-3-3-3-6-6-6-6-1-1-1-1h8--|     D|--3-3-3-3-6-6-6-6-1-1-1-1-8-8-8-8--|
 
Pre Verse: (Distorted)x2                                            
e|------------------------------------------|
B|------------------------------------------|
G|--5--5--5---------------------------------|
D|--5--5--5--5-5--5--5--6--6--6--8-8--8--8--|
A|--3--3--3--5-5--5--5--6--6--6--8-8--8--8--|
D|-----------5-5--5--5--6--6--6--8-8--8--8--| 


Bridge: (Distorted)x3
e|-----------------------------------|
B|-----------------------------------|
G|-----------------------------------|
D|--6-6-6-6-6-6-6-6-3-3-3-3-3-3-3h8--|
A|--6-6-6-6-6-6-6-6-3-3-3-3-3-3-3h8--|
D|--6-6-6-6-6-6-6-6-3-3-3-3-3-3-3h8--|

e|-----------------------------------|---------------|
B|-----------------------------------|---------------|
G|-----------------------------------|---------------|
D|--6-6-6-6-6-6-6-6-3-3-3-3-8-*ring--|--15-15-15-15--|
A|--6-6-6-6-6-6-6-6-3-3-3-3-8-*ring--|--15-15-15-15--|
D|--6-6-6-6-6-6-6-6-3-3-3-3-8-*ring--|--15-15-15-15--|

Chorus: (Distorted)x3
e|------------------------------| 
B|------------------------------| 
G|------------------------------| 
D|--3-3--6-6--1-1-1-1-8-8-8/10--| 
A|--3-3--6-6--1-1-1-1-8-8-8/10--| 
D|--3-3--6-6--1-1-1-1-8-8-8/10--| 

2nd Post Chorus: (Distorted) 
e|----------------------------------|
B|----------------------------------|
G|----------------------------------|
D|--3-3-3-3-6-6-6-6-1-1-1-1-8-8-8-8-|
A|--3-3-3-3-6-6-6-6-1-1-1-1-8-8-8-8-|
D|--3-3-3-3-6-6-6-6-1-1-1-1-8-8-8-8-|

Ending: (Distorted)x3
e|------------------------------------------|
B|------------------------------------------|
G|--5--5--5---------------------------------|
D|--5--5--5--5-5--5--5--6--6--6--8-8--8--8--|
A|--3--3--3--5-5--5--5--6--6--6--8-8--8--8--|
D|-----------5-5--5--5--6--6--6--8-8--8--8--|
 
Outro: (Distorted)
e|-------------------------------|
B|-------------------------------|
G|--5--5--5----------------------|
D|--5--5--5--5-5--5--5--6-*ring--|
A|--3--3--3--5-5--5--5--6-*ring--|
D|-----------5-5--5--5--6-*ring--|

| /  slide up
| \  slide down
| h  hammer-on
| p  pull-off
| ~  vibrato
| +  harmonic
| x  Mute note

Order: Intro x2
       Verse#1 x3
       Pre Chorus 
       Chorus x3
       Post Chorus 
       Pre Verse x2
       Verse#2 x3
       Pre Chorus
       Chorus x3
       2nd Post Chorus
       Bridge x3
       Chorus x3
       2nd post Chorus
       Ending x3
       Outro

     I know it's a bit complicated, but it really pays off and is easy to memorize.
This song is the BEST! Keep ROCKING OUT!
Comments