Exies - Ugly Chords & Tabs

 

Ugly Chords & Tabs

Exies Chords & Tabs

Version: 5 Type: Tab

Ugly Tab

   
Ugly
The Exies
Head For The Door (2004)
Tabbed by: RocknSk8a---HardRockr@hotmail.com

Tuning|Dropped Db (Db-Ab-Db-Gb-Bb-Eb)
/-slide 
[ Tab from: http://www.guitartabs.cc/tabs/e/exies/ugly_tab_ver_5.html ]
Intro: [non-distorted]
Eb|--------------------------|
Bb|--------------------------|
Gb|--5-----------------------|
Db|--5-3x--5-----6-----8-----|
Ab|--3-----5-2x--6-2x--8-2x--|
Db|--------5-----6-----8-----|
Verse#1: [non-distorted]
Eb|--------------------------|
Bb|--------------------------|
Gb|--5-----------------------|
Db|--5-3x--5-----6-----8-----|
Ab|--3-----5-2x--6-2x--8-2x--|
Db|--------5-----6-----8-----|
Pre-Chorus: [distorted]
Eb|---------------|
Bb|---------------|
Gb|--8--6---------|
Db|--8--6--15-----|
Ab|--6--4--15-4x--|
Db|--------15-----|
Chorus: [distorted]
Eb|----------------------------------|
Bb|----------------------------------|
Gb|----------------------------------|
Db|--3-----6-----1--------8-----/10--|
Ab|--3-x2--6-x2--1-x2or3--8-x3--/10--|
Db|--3-----6-----1--------8-----/10--|
Post-Chorus: [distorted]
Eb|--------------------------|
Bb|--------------------------|
Gb|--5-----------------------|
Db|--5-3x--5-----6-----8-----|
Ab|--3-----5-2x--6-2x--8-2x--|
Db|--------5-----6-----8-----|
Verse#2: [non-distorted]
Eb|--------------------------|
Bb|--------------------------|
Gb|--5-----------------------|
Db|--5-3x--5-----6-----8-----|
Ab|--3-----5-2x--6-2x--8-2x--|
Db|--------5-----6-----8-----|
Pre-Chorus: [distorted]
Eb|---------|
Bb|---------|
Gb|---------|
Db|--15-----|
Ab|--15-4x--|
Db|--15-----|
Chorus: [distorted]
Eb|----------------------------------|
Bb|----------------------------------|
Gb|----------------------------------|
Db|--3-----6-----1--------8-----/10--|
Ab|--3-x2--6-x2--1-x2or3--8-x3--/10--|
Db|--3-----6-----1--------8-----/10--|
Ending: [distorted]
Eb|--------------------------|
Bb|--------------------------|
Gb|--5-----------------------|
Db|--5-3x--5-----6-----8-----|
Ab|--3-----5-2x--6-2x--8-2x--|
Db|--------5-----6-----8-----|

Sry that I don't know the bridge but the rest is right...listen to the song to know how
many times to repeat the verses and chorus and stuff...HAVE FUN!!! its the BEST song ever...