Exies - Ugly Chords & Tabs

 

Ugly Chords & Tabs

Exies Chords & Tabs

Version: 4 Type: Tab 0 ratings
1 star 2 stars 3 stars 4 stars 5 stars
comments

Ugly Tab

You use standard EADGBE tuning

Intro: 
e|----------------------------------------------|
B|----------------------------------------------|
G|------11--3x-----6--2x-----6--3x-----4--2x----|
D|------11---------6---------6---------4--------|
A|------09---------4---------0---------0--------|
E|-------------------------------------2--------|

First Verse
e|----------------------------------------------|
B|----------------------------------------------|
G|------11--3x-----6--2x-----6--3x-----4--2x----|
D|------11---------6---------6---------4--------|
A|------09---------4---------0---------0--------|
E|-------------------------------------2--------|
       Are you ugly?       A liar like me?
       A user, a lost soul someone you dont know
       Money its no cure   A sickness so pure

e|----------------------------------------------|
B|----------------------------------------------|
G|-----9---------------------7------------------|
D|-----9---------------------7------------------|
A|-----7---------------------5------------------|
E|----------------------------------------------|
   Are you like me?     Are you ugly?

Chorus:
e|--------------------------------------------------------|
B|--------------------------------------------------------|
G|--------------------------------9----------4------------|
D|-----4--2x---------7------------9----------4------------|
A|-----4-------------7------------7----------2------------|
E|-----2-------------5------------------------------------|
  We are dirt,  we are alone  you know we're far from sober
[ Tab from: http://www.guitartabs.cc/tabs/e/exies/ugly_tab_ver_4.html ]
e|--------------------------------------------------------|
B|--------------------------------------------------------|
G|--------------------------------9----------4------------|
D|-----4--2x---------7------------9----------4------------|
A|-----4-------------7------------7----------2------------|
E|-----2-------------5------------------------------------|
  We are fake, we are afraid, you know its far from over

e|--------------------------------------------------------|
B|--------------------------------------------------------|
G|--------------------------------9----------4------------|
D|-----4--2x---------7------------9----------4------------|
A|-----4-------------7------------7----------2------------|
E|-----2-------------5------------------------------------|
  We are dirt,  we are alone  you know we're far from sober

e|--------------------------------------------------------|
B|--------------------------------------------------------|
G|--------------------------------7----------4------------|
D|-----4--2x---------7------------7----------4------------|
A|-----4-------------7------------5----------2------------|
E|-----2-------------5------------------------------------|
  Look closer,       are you like me?   are you ugly? 
*then you go back to repeating chords used in the first verse 
for the second verse.

*I guess by listening to the song u can figure out the bridge on
your own. Here are the lyrics if u need them.

Are you ugly? A liar like me? 
A user, a lost soul 
Someone you don't know 
Money, it's no cure 
A sickness so pure 
Are you like me? 
Are you ugly? 

We are dirt, We are alone 
You know we're far from sober 
We are fake, We are afraid 
You know it's far from over 
We are dirt, We are alone 
You know we're far from sober 
Look closer 
Are you like me? Are you ugly? 

A turner of blind eye 
Why do I deny? 
Medicate me 
So I die happy 
A strain of cancer 
Chokes the answers 
Are you like me? 
A liar like me? 

(back to chorus)

I don't care, You don't care 
I'm bitter, You're angry 
You don't care, I don't care 
You love you, Just like me 
I blame you,You blame me 
I'm bitter, You're angry 
You don't care, I don't care 
You love you, Like me... 

(chorus)
Comments