Exies - Ugly Chords & Tabs

 

Ugly Chords & Tabs

Exies Chords & Tabs

Version: 3 Type: Tab 0 ratings
1 star 2 stars 3 stars 4 stars 5 stars
comments

Ugly Tab

   
----------------------------------------------------------------------------
			     UGLY- Exies
----------------------------------------------------------------------------
Tabbed by:
Email:

Tuning:DADGBE
~-let ring

e|-----x-------0------0-----0---------------------|
B|-----7-------0------0-----0---------------------|
G|-----6--3x---6--3x--7-3x--9---3x----------------|6x
D|-----4-------6------7-----9---------------------|
A|-----0-------4------5-----7---------------------|
E|--------------------0-----0---------------------|

e|-----------------------------------------------------|
B|-----------------------------------------------------|
G|-----------------------------------------------------|
D|-----4-4--xx-----77--xx----22---99-9-9-11------------|
A|-----4-4--xx-----77--xx----22---99-9-9-11------------|
E|-----4-4--xx-----77--xx----22---99-9-9-11------------|

e|-----------------------------------------------------|
B|-----------------------------------------------------|
G|-----------------------------------------------------|
D|-----4-4--xx-----77--xx----22---99-9-9-0-------------|
A|-----4-4--xx-----77--xx----22---99-9-9-0-------------|
E|-----4-4--xx-----77--xx----22---99-9-9-0-------------|

e|-----------------------------------------------------|
B|-----------------------------------------------------|
G|-----------------------------------------------------|
D|-----4-4--xx-----77--xx----22---99-9-9-11------------|
A|-----4-4--xx-----77--xx----22---99-9-9-11------------|
E|-----4-4--xx-----77--xx----22---99-9-9-11------------|

e|-----------------------------------------------------|
B|-----------------------------------------------------|
G|-----------------------------------------------------|
D|------4-4-4-4----7-7-7-7--0-0-0-0---6~---------------|
A|------4-4-4-4----7-7-7-7--0-0-0-0---4~---------------|
E|------4-4-4-4----7-7-7-7--0-0-0-0--------------------|

e|-----x-------0------0-----0---------------------|
B|-----7-------0------0-----0---------------------|
G|-----6--3x---6--3x--7-3x--9---3x----------------|6x
D|-----4-------6------7-----9---------------------|
A|-----0-------4------5-----7---------------------|
E|--------------------0-----0---------------------|

e|-----------------------------------------------------|
B|-----------------------------------------------------|
G|-----------------------------------------------------|
D|-----4-4--xx-----77--xx----22---99-9-9-11------------|
A|-----4-4--xx-----77--xx----22---99-9-9-11------------|
E|-----4-4--xx-----77--xx----22---99-9-9-11------------|

e|-----------------------------------------------------|
B|-----------------------------------------------------|
G|-----------------------------------------------------|
D|-----4-4--xx-----77--xx----22---99-9-9-0-------------|
A|-----4-4--xx-----77--xx----22---99-9-9-0-------------|
E|-----4-4--xx-----77--xx----22---99-9-9-0-------------|
[ Tab from: http://www.guitartabs.cc/tabs/e/exies/ugly_tab_ver_3.html ]
e|-----------------------------------------------------|
B|-----------------------------------------------------|
G|-----------------------------------------------------|
D|-----4-4--xx-----77--xx----22---99-9-9-11------------|
A|-----4-4--xx-----77--xx----22---99-9-9-11------------|
E|-----4-4--xx-----77--xx----22---99-9-9-11------------|

e|-----------------------------------------------------|
B|-----------------------------------------------------|
G|-----------------------------------------------------|
D|------4-4-4-4----7-7-7-7--0-0-0-0---6~---------------|
A|------4-4-4-4----7-7-7-7--0-0-0-0---4~---------------|
E|------4-4-4-4----7-7-7-7--0-0-0-0--------------------|

e|-----------------------------------------------------|
B|-----------------------------------------------------|
G|-----------------------------------------------------|
D|---0-0-0-0-0-0-0-0---9-9-9-9-9-9---0-3---------------|3x
A|---0-0-0-0-0-0-0-0---9-9-9-9-9-9---0-3---------------|
E|---0-0-0-0-0-0-0-0---9-9-9-9-9-9---0-3---------------|

e|-----------------------------------------------------|
B|-----------------------------------------------------|
G|-----------------------------------------------------|
D|---0-0-0-0-0-0-0-0---9-9-9-9----6~-------------------|
A|---0-0-0-0-0-0-0-0---9-9-9-9----4~-------------------|
E|---0-0-0-0-0-0-0-0---9-9-9-9-------------------------|

e|-----------------------------------------------------|
B|-----------------------------------------------------|
G|-----------------------------------------------------|
D|-----4-4--xx-----77--xx----22---99-9-9-11------------|
A|-----4-4--xx-----77--xx----22---99-9-9-11------------|
E|-----4-4--xx-----77--xx----22---99-9-9-11------------|

e|------------------------------------------------------|
B|------------------------------------------------------|
G|------------------------------------------------------|
D|-----4-4--xx-----77--xx----22---99-9-9-0--------------|
A|-----4-4--xx-----77--xx----22---99-9-9-0--------------|
E|-----4-4--xx-----77--xx----22---99-9-9-0--------------|

e|-----------------------------------------------------|
B|-----------------------------------------------------|
G|-----------------------------------------------------|
D|-----4-4--xx-----77--xx----22---99-9-9-11------------|
A|-----4-4--xx-----77--xx----22---99-9-9-11------------|
E|-----4-4--xx-----77--xx----22---99-9-9-11------------|

e|-----------------------------------------------------|
B|-----------------------------------------------------|
G|-----------------------------------------------------|
D|------4-4-4-4----7-7-7-7--0-0-0-0---6~---------------|
A|------4-4-4-4----7-7-7-7--0-0-0-0---4~---------------|
E|------4-4-4-4----7-7-7-7--0-0-0-0--------------------|

e|-----x-------0------0-----0---------------------|
B|-----7-------0------0-----0---------------------|
G|-----6--3x---6--3x--7-3x--9---3x----------------|4x
D|-----4-------6------7-----9---------------------|
A|-----0-------4------5-----7---------------------|
E|--------------------0-----0---------------------|


| /  slide up
| \  slide down
| h  hammer-on
| p  pull-off
| ~  vibrato
| +  harmonic
| x  Mute note
===============================================================================
Comments