Exies - Ugly Chords & Tabs

 

Ugly Chords & Tabs

Exies Chords & Tabs

Version: 2 Type: Tab 0 ratings
1 star 2 stars 3 stars 4 stars 5 stars
comments

Ugly Tab

-------------------------------------------------------------------------------
			     Ugly - Exies
-------------------------------------------------------------------------------
Tabbed by: sweetjusticwjr.
Email: dude88062000@yahoo.com

Tuning:standard

Verse/intro

e|--------------------------------------|
B|--------------------------------------|
G|----10---------5---------6--------3---|
D|----10---x 2--5--x 4---6--x2---3--x4--|
A|------8---------3---------4--------1--|
E|------8---------3---------4--------1--|

**play with verse/intro 5 times then to chorus

Chrous
[ Tab from: http://www.guitartabs.cc/tabs/e/exies/ugly_tab_ver_2.html ]
e|--------------------------------------|
B|--------------------------------------|
G|----10---------5---------6--------3---|
D|----10---x 2--5--x 2---6--x4---3--x4--|
A|------8---------3---------4--------1--|
E|------8---------3---------4--------1--|

**has distortion, first three times its played the first 2 chords are muted after listen 
song to get it down.

breakdown

e|---------------------------------------------------------------------------------|
B|---------------------------------------------------------------------------------|
G|----3---------6---------10-------------------------------------------------------|
D|----3---------6---------10-------------------------------------------------------|
A|----1---------4-----------8------------------------------------------------------|
E|----1---------4-----------8------------------------------------------------------|

** has distortion, play with song to get correct beat.
Comments