Exies - Ugly Chords & Tabs

 

Ugly Chords & Tabs

Exies Chords & Tabs

Version: 1 Type: Tab 0 ratings
1 star 2 stars 3 stars 4 stars 5 stars
comments

Ugly Tab

-------------------------------------------------------------------------------
			     Ugly - The Exies
-------------------------------------------------------------------------------
Tabbed by:TWIGGY
Email:punkiekid2003@yahoo.com
this is my first tab but i was inspired
Tuning:EADGBE
[ Tab from: http://www.guitartabs.cc/tabs/e/exies/ugly_tab.html ]
e|---------------------------------------------------------------------------|
B|---------------------------------------------------------------------------|
G|55-5---------------Throughout verse----------------------------------------|
D|55-5555--666-777-----------------------------------------------------------|
A|33-3555--666-777-----------------------------------------------------------|
E|----333--444-555-----------------------------------------------------------|

e|---------------------------------------------------------------------------|
B|---------------------------------------------------------------------------|
G|-5-------------------------------------------------------------------------|
D|-5-X6-5----6----3----------------------------------------------------------|
A|-3----5-X6-6-X6-3-X6-------------------------------------------------------|
E|------3----4----1----------------------------------------------------------|
Throughout chorus the verb starting out with i dont care is actually played with the chorus
Comments