Exies - Ugly Chords & Tabs

 

Ugly Chords & Tabs

Exies Chords & Tabs

Version: 1 Type: Bass Tab 0 ratings
1 star 2 stars 3 stars 4 stars 5 stars
comments

Ugly Bass Tab

----------------------------------------------------------------------------
			     UGLY - The Exies
----------------------------------------------------------------------------

Tabbed By :bassface19 
e-mail:katrines1214@sbcglobal.net 


intro/verse1: very soft after each guitar stroke
G|------------------|-------------------------||
D|------------------|-------------------------||  x5
A|------------------|-------------------------||
E|-8----------3-----|-----4---------6---------||

chorus:
G|----------------|------------------||
D|----------------|------------------||
A|----------------|------------------|| x3
E|-8-8-----3-3----|-4-4-4-4-6-6-6/3--||
[ Tab from: http://www.guitartabs.cc/tabs/e/exies/ugly_btab.html ]
G|----------------|-------------------||
D|----------------|-------------------||
A|----------------|-------------------||
E|-8-8-8-8-3-3-3-3|-4-4-4-4-6~--------||

verse2:
G|----------------|----------------|----------------|----------------||
D|----------------|----------------|----------------|----------------||
A|----------------|----------------|----------------|----------------||x3
E|-8---8---8-8----|-3---3---3-3----|-4---4---4-4----|-6---6---6-6----||

solo:
G|---------------|----------------|-------------------|
D|---------------|----------------|-------------------|
A|-------10------|--------10------|-------------------| x4
E|-1-------------|-4--------------|-/8----------------|

order:

intro/verse1
chorus
verse2
chorus
solo
chorus


============================================================================
Comments