Exies - Tired Of You Chords & Tabs

 

Tired Of You Chords & Tabs

Exies Chords & Tabs

Version: 1 Type: Tab 0 ratings
1 star 2 stars 3 stars 4 stars 5 stars
comments

Tired Of You Tab

   
----------------------------------------------------------------------------
			     Tired of You - The Exies 
----------------------------------------------------------------------------
Tabbed by:Brooke
Email:backinblack8413@netscape.net

Intro
This is played eight times before starting the verse
E|--------|
B|----3-4-|
G|----3-3-|
D|1-1-----|
A|--------|
E|--------|

Verse
E|----------------------------------------------------------------|
B|----3-4-----3-4-----3-4-----3-4-----3-4-----3-4-----3-4-----3-4-|
G|----3-3-----3-3-----3-3-----3-3-----3-3-----3-3-----3-3-----3-3-| x2
D|1-1-----1-1-----1-1-----1-1-------------------------------------|
A|--------------------------------3-3-----3-3-----3-3-----3-3-----|
E|----------------------------------------------------------------|

Pre-chorus
[ Tab from: http://www.guitartabs.cc/tabs/e/exies/tired_of_you_tab.html ]
E|----------------------------------------------------------------|
B|----3-4-----3-4-----3-4-----3-4-----3-4-----3-4-----3-4-----3-4-|
G|----3-3-----3-3-----3-3-----3-3-----3-3-----3-3-----3-3-----3-3-|
D|1-1-----1-1-----1-1-----1-1-----0-0-----0-0-----0-0-----0-0-----|
A|----------------------------------------------------------------|
E|----------------------------------------------------------------|

Chorus
These are the chords. Strum 8 times per chord.
e|--------------------------------|
B|----8------5--------------------|
G|----8------5------5------6------|
D|----8------5------6------8------|
A|----6------3------6------8------|
E|------------------4------6------|
     Eb      C     Ab     Bb
Play that 4 times. The last time is the same but instead of strumming the Bb
play it once and hold it out and go back to the verse.

After the last chorus while he sings "I'm not tired of you..." 
e|----------------------------|
B|----------------------------|
G|----4-------5-------7-------|
D|----4-------5-------7-------|
A|----6-------3-------5-------|
E|----------------------------|
      Eb (8x)  C (4x)  D(4x)

Last Chord (hold)
e|-------|
B|-------|
G|---4---|
D|---4---|
A|---6---|
E|-------|
    Eb
Comments