Ewing Jr - Midnight Episode Chords & Tabs

 

Midnight Episode Chords & Tabs

Ewing Jr Chords & Tabs

Version: 1 Type: Tab 0 ratings
1 star 2 stars 3 stars 4 stars 5 stars
comments

Midnight Episode Tab

   
JR EWING
   Midnight episode
--------------------
get to know these guys as fast as you can!

drop d tuning

riff 1:               sometimes:
E|-------------------|   ----------------------
B|-------------------|   ----------------------
G|-4-4-4-4-4-4-4-4-4-|   --5-5-5-5-5-5-7-7-7-7-
D|-------------------|x...---------------------
A|-2-2-0-2-3-2-0-2-2-|   --3-3-3-3-3-3-5-5-5-5-
d|-------------------|   ----------------------
[ Tab from: http://www.guitartabs.cc/tabs/e/ewing_jr/midnight_episode_tab.html ]
riff 2:
E|-------------------
B|-------------------
G|-------------------
D|-------------------
A|-2-2-0-2-3-2-0-2-2-  x...
d|-2-2-0-2-3-2-0-2-2-

bridge:
E|---------------------------------
B|---------------------------------
G|---------------------------------
D|---------------------------------
A|-0--5-5-5-5-7-7-7-8-8-8-10-10-10-
d|-0-------------------------------

E|--------------------------------------
B|--------------------------------------
G|------------------4-4-4-4-5-5-5-7-7-7-
D|--------------------------------------
A|-2-2-2-2-2-5-5-5--2-2-2-2-3-3-3-5-5-5-
d|-2-2-2-2-2-5-5-5----------------------

e-mail: xbentonxfallsx@hotmail.com
Comments