Evolution - Killer Instinct Chords & Tabs

 

Killer Instinct Chords & Tabs

Evolution Chords & Tabs

Version: 1 Type: Tab 0 ratings
1 star 2 stars 3 stars 4 stars 5 stars
comments

Killer Instinct Tab

   
this song is very repedative but sounds good i'm trying to find the lyrics so i'll post them later

intro x2
e --------------------------------------------------------------------------------------------
b --------------------------------------------------------------------------------------------
g --------------------------------------------------------------------------------------------
d --------------------------------------------------------------------------------------------
a --9-9-9-9-9-9-9-9--5-5-5-5-5-5-5-5--7-7-7-7-7-7-7-7--3-3-3-3-3-3-3-3
e --7-7-7-7-7-7-7-7--3-3-3-3-3-3-3-3--5-5-5-5-5-5-5-5--1-1-1-1-1-1-1-1
[ Tab from: http://www.guitartabs.cc/tabs/e/evolution/killer_instinct_tab.html ]
verse 1 x5
e------------------------------------------------
b------------------------------------------------
g------------------------------------------------
d------------------------------------------------
a--9-9-9-9--5-5-5-5--7-7-7-7--3-3-3-3
e--7-7-7-7--3-3-3-3--5-5-5-5--1-1-1-1

chorus x3

e--------------------------------------------
b--------------------------------------------
g--------------------------------------------
d--------------------------------------------
a--------9---------5--------7------------3
e--7-7-7----3-3-3---5-5-5------1-1-1

Play the intro again twice than the verse and then play

ending x2
e
b
g
d
a--9-9--5-5--7-7--3-3
e--7-7--3-3--5-5--1-1

email me at blemin@yahoo.com.au for more info

Comments