Evolution - Bouncen Chords & Tabs

 

Bouncen Chords & Tabs

Evolution Chords & Tabs

Version: 2 Type: Tab 0 ratings
1 star 2 stars 3 stars 4 stars 5 stars
comments

Bouncen Tab

{}= cut note shout
<>=let ring

intro

E --------------------------------------------------------------------|
B --------------------------------------------------------------------|
G --------------------------------------------------------------------|
D ----19--------19-------17------17-----19-------19------21-------21--|
A -17-----17-17-----15-----15-15----17-----17-17-----19-----19-19-----|
E --------------------------------------------------------------------|
[ Tab from: http://www.guitartabs.cc/tabs/e/evolution/bouncen_tab_ver_2.html ]
E ---------------------------------------------------|
B ---------------------------------------------------|
G ---------------------------------------------------|
D ----19---------19-----17------17-----19-------<19--|
A -17-----17-17-----15-----15-15----17-----17-17-----|
E ---------------------------------------------------|

verse x5

E ------------------------------------------------|
B ------------------------------------------------|
G ------------------------------------------------|
D ----11--------11-------5-------5-------7------7-|
A -9-------9-9--------3------3-3------5-----5-5---|
E ------------------------------------------------|

THERE IS A DRUM SOLO HERE THEN PLAY THE VERSE X5 AGAIN
THEN YOUR DONE I'M WORKING ON THE GUITAR SOLO SO I'LL POST IT LATER
ANY QUESTIONS E-MAIL ME AT   BLEMIN@YAHOO.COM.AU
Comments