Evil-dog - Inner Peace Chords & Tabs

 

Inner Peace Chords & Tabs

Evil-dog Chords & Tabs

Version: 1 Type: Tab 0 ratings
1 star 2 stars 3 stars 4 stars 5 stars
comments

Inner Peace Tab

   
Inner Peace
Tabs

Tuning: D A D g b e
By Steven:
Song by: Evil-dog
Key: P= Palm Muting     /or\=slide   H=hammer on    ~~~~~= let ring

INTRO:
|---------------------------------------------------------------------------------|
|---------------------------------------------------------------------------------|
|---------------------------------------------------------------------------------|
|----9~~~~~~~------ 9~~~~~~---7~~~~~~-----9~~~~~~~~~~~------5~~--4----------------|
|----9~~~~~~~------ 9~~~~~~---7~~~~~~-----9~~~~~~~~~~~------5~~--4----------------|
|----9~~~~~~~------ 9~~~~~~---7~~~~~~-----9~~~~~~~~~~~------5~~--4----------------|

MAIN RIFF (CHORUS):
|---------------------------------------------------------------------------------|
|---------------------------------------------------------------------------------|
|---------------------------------------------------------------------------------|
|----------5-5-5-5-5-5-5-4-4-4-4-0-0-0-0-2222222222-7-5-4-5-5-5-5-5-5-5-4-4-4-4---|
|----------5-5-5-5-5-5-5-4-4-4-4-0-0-0-0-2222222222-7-5-4-5-5-5-5-5-5-5-4-4-4-4---|
|----------5-5-5-5-5-5-5-4-4-4-4-0-0-0-0-2222222222-7-5-4-5-5-5-5-5-5-5-4-4-4-4---|
HHHHHHHHHHHHHHHHHHHHHHHHHHHHHHHHHHHHHHHHHHHHHH

|---------------------------------------------------------------------------------|
|---------------------------------------------------------------------------------|
|---------------------------------------------------------------------------------|
|-7-7-7-7-5555555555-7-5-4-5-5-5-5-5-5-5-4-4-4-4-0-0-0-0-2222222222-7-5-4---------|
|-7-7-7-7-5555555555-7-5-4-5-5-5-5-5-5-5-4-4-4-4-0-0-0-0-2222222222-7-5-4---------|
|-7-7-7-7-5555555555-7-5-4-5-5-5-5-5-5-5-4-4-4-4-0-0-0-0-2222222222-7-5-4---------|
HHHHHHHHHHHHHHHHHHHHHHHHHHHHHHHHHHHHHHHHHHHH

|---------------------------------------------------|
|---------------------------------------------------|
|---------------------------------------------------|
|5-5-5-5-5-5-5-4-4-4-4-7-7-7-7-5555555555-----------|
|5-5-5-5-5-5-5-4-4-4-4-7-7-7-7-5555555555-----------|
|5-5-5-5-5-5-5-4-4-4-4-7-7-7-7-5555555555-----------|
HHHHHHHHHHHHHHHHHHHHHHHHH
SOLO#1
|------------------------------------------------------------------|
|------------------------------------------------------------------|
|------------------------------------------------------------------|
|2-4-5--4-5-7-5-7-9--12-10-9-55-7-5-44-5-4-2-4-5-2-4-5-------------|
|------------------------------------------------------------------|
|------------------------------------------------------------------|

|------------------------------------------------------|
|------------------------------------------------------|
|------------------------------------------------------|
|12~-12~-12~-12~-12~-12~-12~-12~-12~-12~---------------|
|12~-12~-12~-12~-12~-12~-12~-12~-12~-12~---------------|
|12~-12~-12~-12~-12~-12~-12~-12~-12~-12~---------------|

MAIN RIFF (CHORUS):
|---------------------------------------------------------------------------------|
|---------------------------------------------------------------------------------|
|---------------------------------------------------------------------------------|
|----------5-5-5-5-5-5-5-4-4-4-4-0-0-0-0-2222222222-7-5-4-5-5-5-5-5-5-5-4-4-4-4---|
|----------5-5-5-5-5-5-5-4-4-4-4-0-0-0-0-2222222222-7-5-4-5-5-5-5-5-5-5-4-4-4-4---|
|----------5-5-5-5-5-5-5-4-4-4-4-0-0-0-0-2222222222-7-5-4-5-5-5-5-5-5-5-4-4-4-4---|
HHHHHHHHHHHHHHHHHHHHHHHHHHHHHHHHHHHHHHHHHHHHHH

|---------------------------------------------------------------------------------|
|---------------------------------------------------------------------------------|
|---------------------------------------------------------------------------------|
|-7-7-7-7-5555555555-7-5-4-5-5-5-5-5-5-5-4-4-4-4-0-0-0-0-2222222222-7-5-4---------|
|-7-7-7-7-5555555555-7-5-4-5-5-5-5-5-5-5-4-4-4-4-0-0-0-0-2222222222-7-5-4---------|
|-7-7-7-7-5555555555-7-5-4-5-5-5-5-5-5-5-4-4-4-4-0-0-0-0-2222222222-7-5-4---------|
HHHHHHHHHHHHHHHHHHHHHHHHHHHHHHHHHHHHHHHHHHHH
[ Tab from: http://www.guitartabs.cc/tabs/e/evil_dog/inner_peace_tab.html ]
|---------------------------------------------------|
|---------------------------------------------------|
|---------------------------------------------------|
|5-5-5-5-5-5-5-4-4-4-4-7-7-7-7-5555555555-----------|
|5-5-5-5-5-5-5-4-4-4-4-7-7-7-7-5555555555-----------|
|5-5-5-5-5-5-5-4-4-4-4-7-7-7-7-5555555555-----------|
HHHHHHHHHHHHHHHHHHHHHHHHH
SOLO#2:
|--------------------------------------------------------|
|--------------------------------------------------------|
|--------------------------------------------------------|
|-----22222222222--44444444444--55555555555--------------|
|-----22222222222--44444444444--55555555555--------------|
|-----22222222222--44444444444--55555555555--------------|

BRIDGE:
|---------------------------------------------------------------------------------|
|---------------------------------------------------------------------------------|
|---------------------------------------------------------------------------------|
|----9~~~~~~~------ 9~~~~~~---7~~~~~~-----9~~~~~~~~~~~------5~~--4----------------|
|----9~~~~~~~------ 9~~~~~~---7~~~~~~-----9~~~~~~~~~~~------5~~--4----------------|
|----9~~~~~~~------ 9~~~~~~---7~~~~~~-----9~~~~~~~~~~~------5~~--4----------------|

|----------------------------------------------------------------------------|
|----------------------------------------------------------------------------|
|----------------------------------------------------------------------------|
|----5~~~~~~--4~~~~~~~--0~~~~~~~-----5~~~~~-4~~~~-7-5-7777777----------------|
|----5~~~~~~--4~~~~~~~--0~~~~~~~-----5~~~~~-4~~~~-7-5-7777777----------------|
|----5~~~~~~--4~~~~~~~--0~~~~~~~-----5~~~~~-4~~~~-7-5-7777777----------------|

MAIN RIFF (CHORUS):
|---------------------------------------------------------------------------------|
|---------------------------------------------------------------------------------|
|---------------------------------------------------------------------------------|
|----------5-5-5-5-5-5-5-4-4-4-4-0-0-0-0-2222222222-7-5-4-5-5-5-5-5-5-5-4-4-4-4---|
|----------5-5-5-5-5-5-5-4-4-4-4-0-0-0-0-2222222222-7-5-4-5-5-5-5-5-5-5-4-4-4-4---|
|----------5-5-5-5-5-5-5-4-4-4-4-0-0-0-0-2222222222-7-5-4-5-5-5-5-5-5-5-4-4-4-4---|
HHHHHHHHHHHHHHHHHHHHHHHHHHHHHHHHHHHHHHHHHHHHHH

|---------------------------------------------------------------------------------|
|---------------------------------------------------------------------------------|
|---------------------------------------------------------------------------------|
|-7-7-7-7-5555555555-7-5-4-5-5-5-5-5-5-5-4-4-4-4-0-0-0-0-2222222222-7-5-4---------|
|-7-7-7-7-5555555555-7-5-4-5-5-5-5-5-5-5-4-4-4-4-0-0-0-0-2222222222-7-5-4---------|
|-7-7-7-7-5555555555-7-5-4-5-5-5-5-5-5-5-4-4-4-4-0-0-0-0-2222222222-7-5-4---------|
HHHHHHHHHHHHHHHHHHHHHHHHHHHHHHHHHHHHHHHHHHHH

|---------------------------------------------------|
|---------------------------------------------------|
|---------------------------------------------------|
|5-5-5-5-5-5-5-4-4-4-4-7-7-7-7-5555555555-----------|
|5-5-5-5-5-5-5-4-4-4-4-7-7-7-7-5555555555-----------|
|5-5-5-5-5-5-5-4-4-4-4-7-7-7-7-5555555555-----------|   X2
HHHHHHHHHHHHHHHHHHHHHHHHH

OUTRO:
|--------------------------------------------------------------------------------|
|--------------------------------------------------------------------------------|
|--------------------------------------------------------------------------------|
|----------5-5-5-5-5-5-5-4-4-4-4-0-0-0-0-2222222222-7-5-4-5-5-5-5-5-5-5-4-4-4-4--|
|----------5-5-5-5-5-5-5-4-4-4-4-0-0-0-0-2222222222-7-5-4-5-5-5-5-5-5-5-4-4-4-4--|
|----------5-5-5-5-5-5-5-4-4-4-4-0-0-0-0-2222222222-7-5-4-5-5-5-5-5-5-5-4-4-4-4--|
HHHHHHHHHHHHHHHHHHHHHHHHHHHHHHHHHHHHHHHHHHHHHH

|----------------------------------------------------------------|
|----------------------------------------------------------------|
|----------------------------------------------------------------|
|-7-7-7-7-5555555555--5~~-4-0-2~~~~~~~~~~~~~~~~~~----------------|
|-7-7-7-7-5555555555--5~~-4-0-2~~~~~~~~~~~~~~~~~~----------------|
|-7-7-7-7-5555555555--5~~-4-0-2~~~~~~~~~~~~~~~~~~----------------|

I'M DONE!!!

Submmited by: SPYDER29FX
Comments