Everything - Who Got The Hooch Chords & Tabs

 

Who Got The Hooch Chords & Tabs

Everything Chords & Tabs

Version: 1 Type: Tab 0 ratings
1 star 2 stars 3 stars 4 stars 5 stars
comments

Who Got The Hooch Tab

   
Everything-Who Got the Hooch

If you have any comments just drop an email apeka@earthlink.net!

Beginning
e|-------------7--0-|   X6
B|---3/4---0--------|
G|------------------|
D|------------------|
A|------------------|
E|------------------|

First Chorus
e|-------------7--0-|   X10
B|---3/4---0--------|
G|------------------|
D|------------------|
A|------------------|
E|------------------|

Second Chorus-Go immediately to next line!
e|-------------7--0-|   X8
B|---3/4---0--------|
G|------------------|
D|------------------|
A|------------------|
E|------------------|

Play at the beginning of the word the number is underneath:
[ Tab from: http://www.guitartabs.cc/tabs/e/everything/who_got_the_hooch_tab.html ]
Let's get real, let's get heavy, til the water breaks the levee lets get lo-se
e|-------------------------------------------------------------------------|
B|--------4---------------5---------------7---------------9--------------12|
G|-------------------------------------------------------------------------|
D|-------------------------------------------------------------------------|
A|-------------------------------------------------------------------------|
E|-------------------------------------------------------------------------|


Third Chorus-Go immediately to next line!
e|-------------7--0-|   X16
B|---3/4---0--------|
G|------------------|
D|------------------|
A|------------------|
E|------------------|

Play at the beginning of the word the number is underneath:

Let's get real, let's get heavy, til the water breaks the levee lets get lo-se
e|-------------------------------------------------------------------------|
B|--------4---------------5---------------7---------------9--------------12|
G|-------------------------------------------------------------------------|
D|-------------------------------------------------------------------------|
A|-------------------------------------------------------------------------|
E|-------------------------------------------------------------------------|

Yeah there's more to it then that but I got the main points though!

| /  slide up
| \  slide down
| h  hammer-on
| p  pull-off
| ~  vibrato
| +  harmonic
| x  Mute note
Comments