Everyday Sunday - Comfort Zone Chords & Tabs

 

Comfort Zone Chords & Tabs

Everyday Sunday Chords & Tabs

Version: 1 Type: Tab 0 ratings
1 star 2 stars 3 stars 4 stars 5 stars
comments

Comfort Zone Tab

Standard tuning: EADGBE

Intro-
E[-----------------------------------]
B[--------------------------6--------]
G[---3-6---3-6---6---3-6-3---6-------]
D[-4-----4-----4---4-----------------]
A[-----------------------------------]
E[-----------------------------------]

Guitar 2 intro
E[-------------------------------------]
B[-------------------------------------]
G[-------------------------------------]
D[-------------------------------------]
A[-4-4-4-4-6-6-6-6-8-8-8-8-8-8-8-8-----]
E[-2-2-2-2-4-4-4-4-6-6-6-6-6-6-6-6-----]

Intro2
lead guitar
E[-------------------------------------------]
B[-------------------------------------------]
G[-6-6-6-6-5-5-5-5-8-8-8-10-8-6-6-6-8-6------]
D[-------------------------------------------]
A[-------------------------------------------]
E[-------------------------------------------]

intro 2
guitar 2
E[-----------------------------------------]
B[-----------------------------------------]
G[-----------------------------------------]
D[-----------------------------------------]
A[11-11-11-11-4-4-4-4-8-8-8-8-6-6-6-8------]
E[-9--9--9--9--2-2-2-2-6-6-6-6-4-4-4-6-----]
[ Tab from: http://www.guitartabs.cc/tabs/e/everyday_sunday/comfort_zone_tab.html ]
verse ( same as guitar 2 for the intro 2)
E[--------------------------------------]
B[--------------------------------------]
G[-6-6-6-6------------------------------]
D[-6-6-6-6---------3-3-3-3--------------]
A[-4-4-4-4-4-4-4-4-1-1-1-1-6-6-6-8------]
E[----------2-2-2-2---------4-4-4-6-----]

chorus( same as verse)
E[-----------------------------------------]
B[-----------------------------------------]
G[-6-6-6-6-----------3-3-3-3---------------]
D[-6-6-6-6--4-4-4-4--3-3-3-3---6-6-6-8-----]
A[-4-4-4-4--4-4-4-4 -1-1-1-1---6-6-6-8-----]
E[----------2-2-2-2------------4-4-4-6-----]

then it does the verse again and it pretty much plays it just the same

then the chorus is played again

then the bridge and it goes:
E[-------------------------------------------------------]
B[-------------------------------------------------------]
G[------------11-11-10-8--6-------------8--8--10-8-6-----]
D[-7---8--11-----------------7---8--11-------------------]
A[-------------------------------------------------------]
E[-------------------------------------------------------]

then it does the chorus, but it does it where the first two chords are just guitar i think ( im trying
to do this from memory)

then it does that little thing that has one guitar playing the intro 2 (or the verse of chorus,
whichever yoy choose) and it has the lead guitar playing that little riff that goes:
E[-------------------------]
B[-------------------------]
G[-----9--6-7--9---7-6-----]
D[--6------------6---------]
A[-------------------------]
E[-------------------------]

I think that's how it goes, like i said i'm trying to do this from memory.
Correct or add anything if you would like.
Ya'll keep rockin
Comments