Everybodyduck - More Of You Chords & Tabs

 

More Of You Chords & Tabs

Everybodyduck Chords & Tabs

Version: 2 Type: Bass Tab 0 ratings
1 star 2 stars 3 stars 4 stars 5 stars
comments

More Of You Bass Tab

   
More of You
Everybodydick
(c) Christian Cake and Gospel Punch Music
       
intro":4x
D|--------5-4--------5h7-5-5--|
A|--3-3-3-----7-7-7-----------|

verses:
D|-------------------7-7-5-5--|
A
[ Tab from: http://www.guitartabs.cc/tabs/e/everybodyduck/more_of_you_btab_ver_2.html ]
pre-chorus: (When I take an honest look at who I am) 
            3x
D|----------------------|-------7-5-------------|
A|--3-3---3-------------|-7-7-7-----3-3-3-3-3-3-|
E|----------3-3-3-3-3-3-|-----------------------|    
     
            3x
A|--3-3---3-------------|-7-7-7-3-3-3-5-5-5-----|
E|----------3-3-3-3-3-3-|-----------------------|

chorus:  (More of You...)
            3x
A|--3-3-3-3-2-------|-7-7-7-3-3-3-5-5-5-|
E|------------5-3-3-|-------------------|
       
       
Comments