Every Time I Die - Shes My Rushmore Chords & Tabs

 

Shes My Rushmore Chords & Tabs

Every Time I Die Chords & Tabs

Version: 1 Type: Tab 0 ratings
1 star 2 stars 3 stars 4 stars 5 stars
comments

Shes My Rushmore Tab

Every Time I Die
She's My Rushmore


|--------------------|  |-------------------|
|--------------------|  |-------------------|
|--------------------|  |-------------------|
|--------------------|  |-------------------|
|---------3p0-0-2p0--|  |---------6p0-0-5p0-|
|-3p0-4p0------------|x4|-6p0-8p0-----------|x4

|--------------------------------------------|
|--------------------------------------------|
|--------------------------------------------|
|--------------------------------------------|
|------------11p0-10p0-------------11p0-10p0-|
|-10h11h12p0-----------10h11h12-0------------|x4

|-------------------|
|-------------------|
|-------------------|
|-------------------|
|---------3p0-0-2p0-|
|-3p0-4p0-----------|x4 

|-----------------|
|-----------------|
|-----------------|
|-----3/2-----2/1-|
|-3/4-3/2-2-3-2/1-|
|-3/4-----2/3-----| x2
[ Tab from: http://www.guitartabs.cc/tabs/e/every_time_i_die/shes_my_rushmore_tab.html ]
|---------------------------------------------------------------------------------|
|---------------------------------------------------------------------------------|
|---------------------------------------------------------------------------------|
|---------------------------------------------------------------------------------|
|-1-4-3-1----0000-0000-00-1-4-3-1----0000-0000-00-1-4-3-1---------1-4-3-1-00-000--|
|-1-4-3-1----0000-0000-00-1-4-3-1----0000-0000-00-1-4-3-100000000-1-4-3-1-00-000--|
             .... .... ..            .... .... ..        ........         .. ... 

|-----------------------------------|                    
|-----------------------------------|                   
|-----------------------------------|                   
|-----------------------------------|                    
|---------3p0-2p0-----------3p0-2p0-|           
|-1p0-2p0---------1p0-0-2p0---------|          

|-------------------------|
|-------------------------|
|-------------------------|
|-----3-2-----------------|
|-1-2-3-2-3p0-2p0---------|
|-1-2-------------2p0-1p0-|


|--------------------|
|--------------------|
|--------------------|
|--------------------|
|-2-44-44----2-44-44-|
|-2-44-44----2-44-44-|

|---------|
|---------|
|---------|
|-----3-2-|
|-3-4-3-2-| 
|-3-4-----|
Comments