Every Time I Die - Logic Of Crocodiles Chords & Tabs

 

Logic Of Crocodiles Chords & Tabs

Every Time I Die Chords & Tabs

Version: 1 Type: Tab

Logic Of Crocodiles Tab

   
* = Palm Mute
h = Hammer On

The Logic of Crocodiles by Everytime I Die


Drop D

Easier to bar.

E-----------------|
B-----------------|
G--3--------------|
D--3-4-0-3-0-1h-0-|
A--3-4-0-3-0-1h-0-|
D----4-0-3-0-1h-0-|


E--------------------------|
B---------------------6-5--|
G------------------------6-|
D----------------7-6-7-----|
A--000000000-5-8-----------|
D--000000000---------------|
   *********

E-----------------------------------------------------------|
B-----------------------------------------------------------|
G------------3------------------------------------666-555---|
D------------3-4-0-3-------------------777-666-777--------6-|
A--000000000-3-4-0-3--000000000-555-888---------------------|
D--000000000---4-0-3--000000000-----------------------------|
   *********          *********
E--------------------|
B--------------------|
G-10-10101010-99---9-|
D-9-------------88-8-|
A-8----------------7-|
D--------------------|
[ Tab from: http://www.guitartabs.cc/tabs/e/every_time_i_die/logic_of_crocodiles_tab.html ]
E-----------------------------------------------------------------------|
B------------------------------------6-5--------------------------------|
G--3------------------------------------6------------3------------------|
D--3-4-0-3-0-1h-0---------------7-6-7----------------3-4-0-3------------|
A--3-4-0-3-0-1h-0--000000000-5-8----------000000000--3-4-0-3--000000000-|
D----4-0-3-0-1h-0--000000000--------------000000000----4-0-3--000000000-|
                   *********              *********           *********

E-----------------------------------------------------------|
B---------6-5-----------------------------------------------|
G------------6------------3---------------------------------|
D----7-6-7----------------3----4-----4----------0--3-0-1h-0-|
A-5-8----------000000000--3----4-----4----------0--3-0-1h-0-|
D--------------000000000-------4-----4----------0--3-0-1h-0-|
               *********


I know the whole song after this just I don't feel like typing anymore so try to figure 
rest out yourself.