Every Time I Die - I Been Gone A Long Time Chords & Tabs

 

I Been Gone A Long Time Chords & Tabs

Every Time I Die Chords & Tabs

Version: 1 Type: Tab 0 ratings
1 star 2 stars 3 stars 4 stars 5 stars
comments

I Been Gone A Long Time Tab

-----------------------------------------------------------------------------
Band: Every Time I Die (www.shittydudes.com)
Song: I Been Gone A Long Time
-----------------------------------------------------------------------------

Drop D tuning 
Tabbed by Michael Barnard
K_S_X@hotmail.com 
with help from omnifreak dave rezendes and Daniel Thomason 

1 "what we're doin is so wrong..." 
"what she thinks is all right..." 
" 
E|---------------------------------------------------------------------| 
B|---------------------------------------------------------------------| 
G|------------------------------------------------3~-------------------| 
D|--0---3h0-5h0---0(3)-3h0-5h0---0(3)-3h0-5h0---------5h0-3h5---3----| 
A|--0-------------0(3)------------0(3)----------------------------3----| 
D|--0-----------0-0(3)----------0-0(3)----------0---------------0-3----| 

2 "balance is a minor setback" 
"one more drink i think should do" 
"so its just as well" 
E|---------------------| 
B|---------------------| 
G|--5---3-5---3-5-3----| 
D|--5---3-5---3-5-3----| 
A|--3---1-3---1-3-1----| 
D|---------------------| 

3 If i could only, make it make you want to want me 
E|---------------------| 
B|---------------------| 
G|---------------------| 
D|---------------------| multiple repeats 
A|---------------------| 
D|--5---3-5---3-5-3----| 

4 
E|-------------------------------------| 
B|-------------------------------------| 
G|-------------------------------------| 
D|--------------------------3h5--------| 
A|----------3h5---------3h5-----3h5----| 
D|--0---3h5-----0---3h5----------------| 
[ Tab from: http://www.guitartabs.cc/tabs/e/every_time_i_die/i_been_gone_a_long_time_tab.html ]
5 "i wish that i could say" 
E|---------------------------------------------------------------------| 
B|---------------------------------------------------------------------| 
G|--------------------------------------------------3h0----------------| 
D|--3---0-0-0-0-0-0-----3h0-5h0---0(3)--0-0-0-0-0-0-----5h0-3h5---3----| 
A|--3---0-0-0-0-0-0---------------0(3)--0-0-0-0-0-0---------------3----| 
D|--3---0-0-0-0-0-0-3h0---------0-0(3)--0-0-0-0-0-0-------------0-3----| 
PM * * * * * * * * * * * * 

6 "i love the way you stand so close to a guy.." 
E|---------------------------------------------------------------------| 
B|---------------------------------------------------------------------| 
G|----------------------------------------------------3~---------------| 
D|--0--3-0---------0-3(3)-0--------0-3(3)0----------------5h0-3h5-----| 
A|--0--3-0---------0-3(3)-0--------0-3(3)-0----------------------------| 
D|--0--3-0---------0-3(3)-0--------0-3(3)-0----------------------------| 


7 
E|--------------------------------------------| 
B|--------------------------------------------| 
G|--------------------------------------------| 
D|--------------------------------------------| 
A|--------------------------------------------| 
D|--5---3-5---3-5-3-5---3-5-3---0-0-0-0-------| 
PM * * * * 

8 
changeup "there's cocaine" 
E|-----------------------------------------------| 
B|-----------------------------------------------| 
G|----------------------------------------7------| 
D|--0---0-3/5-0---0-3/5-0---0-3/5-0---0-3-7------| 
A|--0---0-3/5-0---0-3/5-0---0-3/5-0---0-3-5------| 
D|--0---0-3/5-0---0-3/5-0---0-3/5-0---0-3--------| 

fill "that took us from the bar..." 
E|---------------------------------------| 
B|---------------------------------------| 
G|---------------------------------------| 
D|--0-6-5--0-5-3--0-3-2--0-0-------------| 
A|--0-6-5--0-5-3--0-3-2--0-0-------------| 
D|--0-6-5--0-5-3--0-3-2--0-0-------------| 

Here's the song order: i think 
1 
2 
1 
2 
3 
4 
5 
2 
4 
2 
1 
6 
1 
2 
7 
5 
8 
email me with questions, if the order is wrong, listen to the 
song a ton of times and you will get it. i saw three tabs for this song, 
one was shit, two were half right, so i combined and fixed them. 
dave
Comments