Every Time I Die - Gloom And How It Gets That Way Chords & Tabs

 

Gloom And How It Gets That Way Chords & Tabs

Every Time I Die Chords & Tabs

Version: 1 Type: Tab

Gloom And How It Gets That Way Tab

   
Band: Every Time I Die
Song: Gloom And How It Gets That Way
Album: Gutter Phenomenom

tuning: drop D (D A D G B E)

[ Tab from: http://www.guitartabs.cc/tabs/e/every_time_i_die/gloom_and_how_it_gets_that_way_tab.html ]
-----------------|
-----------------|
-----------------|
-----------------|
-3p0-------------|
-----3p0-3p0-3p0-|

play above riff 3x, then:
------------|
------------|
-6--6---6-6-|
-5--5---5-5-|
-4--4---4-4-|
------------|