Every Six Seconds - Egg On Your Windshield Chords & Tabs

 

Egg On Your Windshield Chords & Tabs

Every Six Seconds Chords & Tabs

Version: 1 Type: Bass Tab 0 ratings
1 star 2 stars 3 stars 4 stars 5 stars
comments

Egg On Your Windshield Bass Tab

Intro & Verse:
G:-\-7-7-7----------------------7-7-7--9-9-9--11-11-11-12-12-12-11-11-
D:----------7-7-7--5-5-5-5-5-5----------------------------------------
A:--------------------------------------------------------------------
E:--------------------------------------------------------------------

Bass Solo:
G:---11--11--9--9--9-------12--12--9--9--9-------11--11--9--9--9------
D:-0---0---0--0--0--0-0--0---0--0--0--0--0-0-0--0--0---0--0--0---0-0--
A:--------------------------------------------------------------------
E:--------------------------------------------------------------------
[ Tab from: http://www.guitartabs.cc/tabs/e/every_six_seconds/egg_on_your_windshield_btab.html ]
G:--9--9---7--7--7-----------------
D:-0--0--0--0--0---0-0-------------
A:---------------------------------  X2
E:---------------------------------


Chorus:
G:-11--11--11--9--9--9--12--12--12--9--9--9--11--11--7--7-------------
D:-0---0---0---0--0--0--0---0---0---0--0--0--0---0---0--0-------------
A:--------------------------------------------------------------------
E:--------------------------------------------------------------------


That's the whole song but i'm too lazy to show you the song order. 
It's pretty easy. This is a new punk rock band from Salt Lake City, 
Utah. Look out for them!
Comments