Evermore - Too Late Chords & Tabs

 

Too Late Chords & Tabs

Evermore Chords & Tabs

Version: 1 Type: Tab 0 ratings
1 star 2 stars 3 stars 4 stars 5 stars
comments

Too Late Tab

   
-------------------------------------------------------------------------------
			     Too Late - Evermore
-------------------------------------------------------------------------------
Tabbed by:Jon_boi
Email:jon.heathcote@defence.gov.au

I searched everywhere for this and couldnt find it. so my mate and i sat and figured
it out. this is what we got. it is keyboard transcribed to guitar. probably not perfect
but listen to it and keep trying. any corrections i am more than keen to hear em.

Tuning:standard
| /  slide up
| \  slide down
| h  hammer-on
| p  pull-off
| ~  vibrato
| +  harmonic
| x  Mute note
e|--------------------------------------------------------------------------|
B|--------------------------------------------------------------------------|
G|--8-9-8-3-4-6-8----8-9-8-3-1-6-8------------------------------------------|
D|--------------------------------------------------------------------------|
A|--------------------------------------------------------------------------|
E|--------------------------------------------------------------------------|

e|--------------------------------------------------------------------------|
B|--12-12-11-7-11-11-7------------------------------------------------------|
G|--------------------------------------------------------------------------|
D|--------------------------------------------------------------------------|
A|--------------------------------------------------------------------------|
E|--------------------------------------------------------------------------|
[ Tab from: http://www.guitartabs.cc/tabs/e/evermore/too_late_tab.html ]
e|--11-9-7---11-9-7---------------------------------------------------------|
B|---------9--------9-------------------------------------------------------|
G|--------------------------------------------------------------------------|
D|--------------------------------------------------------------------------|
A|--------------------------------------------------------------------------|
E|--------------------------------------------------------------------------|

e|--------------------------------------------------------------------------|
B|--12-12-11-7-11-11-7------------------------------------------------------|
G|--------------------------------------------------------------------------|
D|--------------------------------------------------------------------------|
A|--------------------------------------------------------------------------|
E|--------------------------------------------------------------------------|

e|--11-9-7---11-9-7---------------------------------------------------------|
B|---------9--------9-------------------------------------------------------|
G|--------------------------------------------------------------------------|
D|--------------------------------------------------------------------------|
A|--------------------------------------------------------------------------|
E|--------------------------------------------------------------------------|

e|-----------------------------------666------------------------------------|
B|-----------------------------------777------------------------------------|
G|------------------------6-6-6-6----888----repeat twice--------------------|
D|--6-6-6-6----4-4-4-4----6-6-6-6----666------------------------------------|
A|--6-6-6-6----4-4-4-4----4-4-4-4----666------------------------------------|
E|--4-4-4-4----2-2-2-2------------------------------------------------------|

e|--666666----444444--------------------------------------------------------|
B|--777777----555555--------------------------------------------------------|
G|--888888----666666--repeat as needed--------------------------------------|
D|--666666----444444--------------------------------------------------------|
A|--666666----444444--------------------------------------------------------|
B|--------------------------------------------------------------------------|
E|--------------------------------------------------------------------------|



===============================================================================
Comments