Evermore - Slipping Away Chords & Tabs

 

Slipping Away Chords & Tabs

Evermore Chords & Tabs

Version: 2 Type: Tab 0 ratings
1 star 2 stars 3 stars 4 stars 5 stars
comments

Slipping Away Tab

   
Evermore-Slipping Away
Album-Dreams
Intro

tuning: Eb, Bb, Gb, Db, Ab, Eb.
[ Tab from: http://www.guitartabs.cc/tabs/e/evermore/slipping_away_tab_ver_2.html ]
E-----------------------------------------------------------------|
B---7--7-----7---6--6----------7--7---7---6--6---7P6H7------------|
G-----------------------8--8--------------------------------------|
D-----------------------------------------------------------------|
A-----------------------------------------------------------------|
E-----------------------------------------------------------------|

E-----------------------------------------------------------------|
B---7--7-----7---6--6----------7--7---7---6--6---7----------------|
G-----------------------8--8--------------------------------------|
D-----------------------------------------------------------------|
A-----------------------------------------------------------------|
E-----------------------------------------------------------------|

this is mi 1st tab so plz r8 it...
Comments