Evermore - Its Too Late Chords & Tabs

 

Its Too Late Chords & Tabs

Evermore Chords & Tabs

Version: 1 Type: Bass Tab 0 ratings
1 star 2 stars 3 stars 4 stars 5 stars
comments

Its Too Late Bass Tab

EVERMORE - ITS TOO LATE

BASS TAB
TABBED BY LENNIE
lennie_logan@yahoo.co.nz

(00:14)
G|----------------|----------------|----------------|----------------|
D|6-6-6-6---------|--------6-6-6-6-|----------------|--------6-6-6-6-|
A|--------6-6-6-6-|4-4-4-4---------|--------6-6-6-6-|4-4-4-4---------|
E|----------------|----------------|4-4-4-4---------|----------------|

PAUSE

(00:42)
G|----------------|----------------|
D|----------------|---------66-66-6|
A|---------66-66-6|-44-44-4--------|
E|-44-44-4--------|----------------|

PAUSE

(00:54), (01:01)  
G|----------------|
D|-66--66---------|
A|----------------|
E|----------------|


(01:03)				    LET IT RING HERE
G|----------------|----------------|----------------|
D|----------------|---------66-66-6|----------------|
A|---------66-66-6|-44-44-4--------|2~~~~~~~~~~~~~~~|
E|-44-44-4--------|----------------|----------------|


CHORUS
(01:13)
G|----------------|----------------|----------------|----------------|
A|----------------|--------6-6-6-6-|6-6-6-6---------|----------------|
D|--------6-6-6-6-|4-4-4-4---------|--------6-6-6-6-|4-4-4-4---------|
E|4-4-4-4---------|----------------|----------------|--------4-4-4-4-|
[ Tab from: http://www.guitartabs.cc/tabs/e/evermore/its_too_late_btab.html ]
G|----------------|----------------|----------------|----------------|
A|9-9-9-9-9-9-9-9-|----------------|----------------|----------------|
D|----------------|7-7-7-7---------|--------6-6-6-6-|4-4-4-4---------|
E|----------------|--------7-7-7-7-|4-4-4-4---------|--------4-4-4-4-|


PAUSE


(01:54)
G|----------------|----------------|
D|----------------|----------------|
A|---------66-66-6|-44-44-4--------|
E|-44-44-4--------|---------44-44-4|

G|----------------|----------------|
D|----------------|---------66-66-6|PAUSE
A|---------66-66-6|-44-44-4--------|
E|-44-44-4--------|----------------|



(02:15) 
CHORUS



(02:42)						     LET IT RING HERE
G|----------------|----------------|----------------|----------------|
D|----------------|--------6-6-6-6-|----------------|----------------|
A|--------6-6-6-6-|4-4-4-4---------|--------6-6-6-6-|7~~~~~~~~~~~~~~~|
E|4-4-4-4---------|----------------|4-4-4-4---------|----------------|



(02:56)
CHORUS
(03:24)
G|----------------|----------------|----------------|----------------|
D|----------------|---------66-66-6|-66-66-6--------|----------------|
A|---------66-66-6|-44-44-4--------|---------66-66-6|-44-44-4--------|X2
E|-44-44-4--------|----------------|----------------|---------44-44-4|
Comments