Evermore - Dreams Call Out To Me Chords & Tabs

 

Dreams Call Out To Me Chords & Tabs

Evermore Chords & Tabs

Version: 1 Type: Tab 0 ratings
1 star 2 stars 3 stars 4 stars 5 stars
comments

Dreams Call Out To Me Tab

   
EVER MORE-- DREAMS CALL OUT TO ME

TABBED BY LENNIE
lennie_logan@yahoo.co.nz


Intro


    C                       Am       E
e--------------------------------------------|
B---1------1-----3-1-0------1---1-1----------|
G---0------0-----0-0-0------2---2-2--0-----0-|
D---2------2-----2-2-2------2---2-2--2-----2-|
A---3------3-----3-3-3------0---0-0--2-----2-|
E------------------------------------0-----0-|

e--------------------------------------------|
B---1------1-----3-1-0------1---1-3----------|
G---0------0-----0-0-0------2---2-2--0-----0-|
D---2------2-----2-2-2------2---2-2--2-----2-|
A---3------3-----3-3-3------0---0-0--2-----2-|
E------------------------------------0-----0-|


Verse1

Just strum intro chords as normal chords dont add the lil extra things
C                  Am        E
\"The universe is dead\"       its what you always said
Im trying to understand      whats going through you head
Dreams call out to me        i follow where they lead
             Ill go where    ever you go

Next between verse 1 & 2 do this

   C                       Am       E
e---------------------------------------------|
B---1------1-----3-1-0------1---1-1-----------|
G---0------0-----0-0-0------2---2-2--0-----0--|
D---2------2-----2-2-2------2---2-2--2-----2--|
A---3------3-----3-3-3------0---0-0--2-----2--|
E------------------------------------0-----0--| just the once then go back to the verse strumming


Verse2

C              Am        E
The shining of the day        reflects it in your way
The leaves up on the tree     they\'re from a single seed
I try to turn the tide        the questions in my mind
             And its a       struggle i know
             Take me where    ever you go

    C                       Am       E
e--------------------------------------------|
B---1------1-----3-1-0------1---1-1----------|
G---0------0-----0-0-0------2---2-2--0-----0-|
D---2------2-----2-2-2------2---2-2--2-----2-|
A---3------3-----3-3-3------0---0-0--2-----2-|
E------------------------------------0-----0-|
Bring me back again and dont let me fall
[ Tab from: http://www.guitartabs.cc/tabs/e/evermore/dreams_call_out_to_me_tab.html ]
e--------------------------------------------|
B---1------1-----3-1-0------1---1-3----------|
G---0------0-----0-0-0------2---2-2--0-----0-|
D---2------2-----2-2-2------2---2-2--2-----2-|
A---3------3-----3-3-3------0---0-0--2-----2-|
E------------------------------------0-----0-|
Im not waiting for the end of it all.

Then back to verse struming

C              Am      E

The turning of the tide    falling in behind
Pretending not to find     the questions in my mind
The shining of the day     the old familiar way
        Follow the      road where it leads
        And all the way    we will sing...

Naaaaah naaaah nah nah nah nah naaaaaah naaaaah nah nah nah x4

Then this...


e---------------------------------------------------------------|
B---------------------------------------------------------------|
G-----8------5--------------------------------------------------|
D-----8------5-----5--------------------------------------------|
A-----6------3-----5--------------------------------------------|
E------------------3--------------------------------------------|

Naaaaah naaaah nah nah nah nah naaaaaah naaaaah nah nah nah x 4

For the winter, for the summer
For the ocean, and for the river
For the question, for the answer
For the gift, and for the giver
For the life, and for the liver
For the night, and for the day...

e-----------------------------------------------------------------|
B------6---8---9---6---8------6---8---9---8---4-------------------|
G-----------------------------------------------------------------|
D-----------------------------------------------------------------|
A-----------------------------------------------------------------|
E-----------------------------------------------------------------|


e----------------------------------------------10-----------------|
B------6---8---9---6---8------6---8---9---8-----------------------|
G-----------------------------------------------------------------|
D-----------------------------------------------------------------|
A-----------------------------------------------------------------|
E-----------------------------------------------------------------|


e-----10--8--10--8--10--8--10--8--11-11---------------------------|
B-----------------------------------------------------------------|
G-----------------------------------------------------------------|
D-----------------------------------------------------------------|  X4
A-----------------------------------------------------------------|
E-----------------------------------------------------------------|


Then hit this when needed.
e-----------|
B-----------|
G-----8-----|
D-----8-----|
A-----6-----|
E-----------|
Comments