Everlast - What Its Like Chords & Tabs

 

What Its Like Chords & Tabs

Everlast Chords & Tabs

Version: 6 Type: Tab 0 ratings
1 star 2 stars 3 stars 4 stars 5 stars
comments

What Its Like Tab

email: Rem870ExpD@aol.com
group: Everlast
name: David
song: What It's Like

I didn't put the sequence cause its too long but
you can figure it out pretty easily

 (intro)
|--------3--1-3h1----------0--0-0------0--0-0------
|------3----------3h1------1--1-1------1--1-1------
|----2-------------------2----2-2------0--0-0------
|--0-------------------3-------------2----2-2------
|----------------------------------3---------------
|--------------------------------------------------

 (verse)
|-----1-1--0--0---0--0-0------0-0--0--1-1-1-1-3p1--
|-----3-3--1--1---1--1-1------1-1--1--3-3-3-3-3----
|-----2-2---------0--0-0------0-0--0--2-2----------
|--0------------3-----------2---------0-0----------
|-------------------------3------------------------
|--------------------------------------------------
  after this ^ you play the intro faster INSTEAD of verse
[ Tab from: http://www.guitartabs.cc/tabs/e/everlast/what_its_like_tab_ver_6.html ]
 (??not sure what you call this part SOLO 1)
|------1---------------3-----------1----------5----
|--------3---------------5-5\--------3---------6---
|----2-----2-2-2/4--4------------2-----2-2-2/------
|--0---------0-0-0--0----------0---------0-0-------
|--------------------------------------------------
|--------------------------------------------------

|------1-1-1----
|-------3-3-3---
|----2----------
|--0------------
|---------------
|---------------

 (??SOLO 2)  fade out
|--1-1--1-1-1--0--0--0-0-0--0--0--0-0-0--0---1-1-1-3-----
|--3-3---3-3-3--1-1---1-1-1--1-1---1-1-1---3--3-3-3-3----
|--2-2------------2------------0-----------2-------------
|--0-0------------3------------2-----------0-------------
|------------------------------3-------------------------
|--------------------------------------------------------

 Any ???  questions  E-mail me at Rem870ExpD@aol.com

Comments