Everlast - What Its Like Chords & Tabs

 

What Its Like Chords & Tabs

Everlast Chords & Tabs

Version: 2 Type: Tab 0 ratings
1 star 2 stars 3 stars 4 stars 5 stars
comments

What Its Like Tab

Artist: Everlast
Song: What it's like
Album: Whitey ford sings the blues
Transcribed by: Bruno Calatroni
Tuning: Normal
E-mail: WeezerSP00@aol.com

This version is totally complete.


Intro: with upstrokes and downstrokes and slight improvisation


E------------3--1---3p1----------------0-------0-----------0-----0---
B---------3-------------3--------------1-------1-----------1-----1---
G------2------------------(2)-------2----------2-----------0-----0---
D---0----------------------------3----------3-----------2------------
A-----------------------------------------------------3--------3-----
E--------------------------------------------------------------------

Verse: with upstrokes and downstrokes and also slight improvisation


E---------1-----1----------0------0--------0-----1--1---1--1h3p1--1---
B---------3-----3----------1------1--------1-----3--3---3--3------3---
G------2--------2-------2---------2--------0-----2--2---2---------2---
D--0---------0-------3---------3---------2------------------------0---
A-------------------------------------3-------------------------------
E---------------------------------------------------------------------

Break: also with upstrokes and slight improvisation

[ Tab from: http://www.guitartabs.cc/tabs/e/everlast/what_its_like_tab_ver_2.html ]
E--------1-------------------3---------------1-------------------5-----
B-----------3------------------5----------------3------------------6---
G-----2--------2----2/4---4-------4-------2--------2----2/7---7------7-
D--0----------------0------------------0----------------0--------------
A----------------------------------------------------------------------
E----------------------------------------------------------------------

E--------1-------------------3---------------1--------1--------1-------
B-----------3-------------------5---------------3--------3--------3----
G-----2--------2----2/4---4--------4-------2-------2--------2--------2-
D--0----------------0-------------------0------------------------------
A----------------------------------------------------------------------
E----------------------------------------------------------------------

End Solo:play this chord progression w/ improvisation & fingerpicking

E---1----------0----------0----------1h3-3-3----------
B---3----------1----------1----------3----------------
G---2----------2----------0----------2----------------  FADE OUT
D---0----------3----------2----------0----------------
A-------------------------3---------------------------
E-----------------------------------------------------

Any comments or questions please e-mail me @ WeezerSP00@aol.com


Comments