Everlast - Broken Chords & Tabs

 

Broken Chords & Tabs

Everlast Chords & Tabs

Version: 1 Type: Tab 0 ratings
1 star 2 stars 3 stars 4 stars 5 stars
comments

Broken Tab

artist: Everlast
song: Broken
album: White Trash Beautiful
tabbed by: Adam (May 20, 2004) 
tuning: standard 

pretty simple song here, as most of the melodies are done on a 
synthesizer. i think there are a few lead guitar parts, though,
but i just tabbed out the rhythm part.
[ Tab from: http://www.guitartabs.cc/tabs/e/everlast/broken_tab.html ]
  verses
e-0--0---0-0-0-0-0-0----0--0--0-0-0-0-0---------------------------
B-0--0---2-2-2-2-2-2----2--2--2-2-2-3-2---------------------------
G-2--2---2-2-2-2-2-2----2--2--2-2-2-2-2---------------------------
D-2--2---2-2-2-2-2-2----0--0--0-0-0-0-0---------------------------
A-0--0---0-0-0-0-0-0----------------------------------------------
E-----------------------------------------------------------------
  chorus
e--2-2-2-2-2-2----0-0-0-0-0-0-------------------------------------
B--2-2-2-2-2-2----2-2-2-2-2-2-------------------------------------
G--2-2-2-2-2-2----2-2-2-2-2-2-------------------------------------
D--4-4-4-4-4-4----2-2-2-2-2-2-------------------------------------
A--4-4-4-4-4-4----0-0-0-0-0-0-------------------------------------
E--2-2-2-2-2-2----------------------------------------------------

any questions, comments, etc. can be sent to ninjaadam44@yahoo.com.
Comments