Everlast - Babylon Feeling Chords & Tabs

 

Babylon Feeling Chords & Tabs

Everlast Chords & Tabs

Version: 1 Type: Tab 0 ratings
1 star 2 stars 3 stars 4 stars 5 stars
comments

Babylon Feeling Tab

   
Name: Forrest 

Tabs: Everlast F. Santana- Babylon Feeling
Tabbed By 

I tabbed this after I played another tab posted, I found quite a few 
mistake/stuff left out, especially in the Santana parts. I had trouble 
finding the intro, it sounds good played both ways I tabbed it. Try both 
out and tell me what you think. 

Dropped D Tuning

Intro and Verse
e|-----------------------------------------------------------| 
B|-----------------------------------------------------------| 
G|--------2------------5-------------------------------------| 
D|-----2-----2------5-----5---------3-----------------5------| 
A|--0----------0-3----------3----3-----3-----5----------3-0--| 
D|----------------------------3----------3-5---5-3--3--------|
Other way (not very different)

e|-----------------------------------------------------------| 
B|-----------------------------------------------------------| 
G|--------2------------5-------------------------------------| 
D|-----2-----2------5-----5---------3-----------------3------| 
A|--0----------0-3----------3----3-----3-----5----------3----| 
D|----------------------------3----------3-5---5-3--3-----3--|  

My heart is broke, my will is gone
Fell in love with a woman named Babylon
She hook me to the gills all of her forbidden thrills
I call her baby for short, then I ramble on
She'll forget about me…

Lick 1
{Santana}:
e|-------------------------------------------------| 
B|--12h13--12---8---(10~)---13-15-17-18-17-15-13~--| 
G|-------------9-----------------------------------| 
D|-------------------------------------------------| 
A|-------------------------------------------------| 
E|-------------------------------------------------| 

My soul is high, my mind is free 
Met a shorty with some back call her Destiny
She showed me all my fates, my stream of conscious navigates
I orbit around the sun at high velocity 
Don't forget about me, don't forget about…

e|---------------------| 
B|---------------w/wah-| 
G|--7^9--7-5------5----| 
D|-----------7---(7)---| 
A|---------------------| 
E|---------------------| 


e|----------------------x-x-----------------| 
B|----------------------x-x-----------------| 
G|----------------------x-x-----------------| 
D|--7-7----10-10----3-3-x-x-5-5-x-----------| 
A|--7-7----10-10----3-3-x-x-5-5-x-3h5p3-0(0)| 
D|--7-7----10-10----3-3-x-x-3-5-x-----------|

CHORUS:

Sweet thing won't you save my soul
Pretty lady, won't you take me home X2...tonight

{Santana: During Chorus)
e|-------------------------------------------------------------| 
B|--13--12~----13--10~---------8---8--12-13~--13--12--8---8h10~| 
G|-------------------------7/9----9---------------------9------| 
D|-------------------------------------------------------------| 
A|-------------------------------------------------------------| 
E|-------------------------------------------------------------| 

e|---------------------------------------------------------| 
B|--13-15-17^-17^-15-13--15-13-13~-----13--12~---13--10~---| 
G|---------------------------------------------------------| 
D|---------------------------------------------------------| 
A|---------------------------------------------------------| 
E|---------------------------------------------------------| 

e|-------------------------------------------| 
B|--17^18-17--13-15-13~---13--12---8---10-10~| 
G|------------------------------------9------| 
D|-------------------------------------------| 
A|-------------------------------------------| 
E|-------------------------------------------| 

{Verse again} 
After chorus lick {Santana}

e|-------------------------------------------| 
B|-----5-5~~---------5-6-5^------------------| 
G|--/5 ----------5-7---------5—(7)—7^9-7-5---| 
D|------------/7---------------------------7-| 
A|-------------------------------------------| 
E|-------------------------------------------|

My arms are heavy, my body's tense
Got the hot's for this honey named Confidence
She points out all of my flaws, breaking all of her favorite laws
But Never speaks a word in my defense, just forget about me

e|---------------------------------------| 
B|--13--12~----13-13--10~----------------| 
G|---------------------------7^(9)-7-5---| 
D|------------------------------------7--| 
A|---------------------------------------| 
E|---------------------------------------|

My spirit's weak, my lust will thrive
Got a thing for this bitch said her name's a lie
She controls me with her fear; my prayers fall on her cold deaf ear
She says have a good time and take your dive 
Just forget about me, just forget about

{Chorus}

e|----------------------x-x-----------------| 
B|----------------------x-x-----------------| 
G|----------------------x-x-----------------| 
D|--7-7----10-10----3-3-x-x-5--5-x----------| 
A|--7-7----10-10----3-3-x-x-5--5-x-3h5p3-0--| 
D|--7-7----10-10----3-3-x-x-3--3-x----------|


{Santana:Chorus}
e|---------------------------7-8-7--------------------------| 
B|--13--12~----8-10~-------8-------8--10~--13--12~----8--10~| 
G|-----------------------/9--------------------------9------| 
D|----------------------------------------------------------| 
A|----------------------------------------------------------| 
E|----------------------------------------------------------| 

e|-------------------------------------------------| 
B|--13-15-17--17-13-17^-17^----13--12~--13--10~----| 
G|-------------------------------------------------|
D|-------------------------------------------------| 
A|-------------------------------------------------|
E|-------------------------------------------------| 
[ Tab from: http://www.guitartabs.cc/tabs/e/everlast/babylon_feeling_tab.html ]
e|-------------------------------------------------------| 
B|--17-17-17-17-\13-13--15-10--10--13--12~---8---10-10~--| 
G|---------------------------------------------9---------| 
D|-------------------------------------------------------| 
A|-------------------------------------------------------| 
E|-------------------------------------------------------| 


Sweet things, won't you save my soul, yeah
Pretty lady, won't you take me home
Sweet thing won't you save my soul, yeah
Pretty lady won't you take me home...tonight

I've got a Babylon feelin', I've got a Babylon feelin'
I've got a Babylon feelin', I'm feelin' Babylon
e|-----------------------------| 
B|-----------------------------| 
G|-----------------------------| 
D|--7-7-----------5-5-x-x-3----| 
A|--7-7-----------5-5-x-x-3----| 
D|--7-7-----------5-5-x-x-3----|

Santana

e|----------------------------------------------------------| 
B|-13--12~----13--10~---13--12~----8---10----10-8-----------| 
G|-----------------------------------9-------------9^-7-----| 
D|------------------------------------------------------10-7| 
A|----------------------------------------------------------| 
E|----------------------------------------------------------| 

e|------------------------------------------------------------| 
B|13--12~--10/13-10~--13-15-17^--17-15-13--13--12~--8---10-10-| 
G|---------------------------------------------------9--------| 
D|------------------------------------------------------------| 
A|------------------------------------------------------------| 
E|------------------------------------------------------------| 

e|---------------------------------------------------------| 
B|--12--13--15--17^(18)-17^(18)-17^(18)-17^(18)-17^(18)----| 
G|---------------------------------------------------------| 
D|---------------------------------------------------------| 
A|---------------------------------------------------------| 
E|---------------------------------------------------------| 

 
My heart is broke, my will is gone 
Fell in love with a woman named Babylon 
She hook me to the gills, all of her forbidden thrills
I call her baby for short then I ramble on, 
e|-----------------------------| 
B|-----------------------------|
G|---------------7^(9)-7-5-----| 
D|-------7-10-7-------------7--| 
A|--/7-10----------------------| 
E|-----------------------------| 

and I ramble on…
e|----------------------x-x-----------------| 
B|----------------------x-x-----------------| 
G|----------------------x-x-----------------| 
D|--7-7----10-10----3-3-x-x-5-5-x-----------| 
A|--7-7----10-10----3-3-x-x-5-5-x-3h5p3-0(0)| 
D|--7-7----10-10----3-3-x-x-3-5-x-----------|

Santana

e|------------------------------12-----------------------------| 
B|-13\12~--8-8-10~---10--12--13-----10~---13--12~----8---10-10~| 
G|----------------------------------------------------9--------| 
D|-------------------------------------------------------------| 
A|-------------------------------------------------------------| 
E|-------------------------------------------------------------| 

e-------------------------------------------------------------| 
B13-13-17^(19)-17^-17^-13--12~--13-13--10~-13-13-13-15-10--10-| 
G------------------------------------------17-17-17-----------| 
D-------------------------------------------------------------| 
a-------------------------------------------------------------| 
E-------------------------------------------------------------| 

e|-------------------------------------------------------------| 
B|--13--12~--8---10-10~--13-13-13-13-15-10--10--13--12~-13-10~-| 
G|-------------9---------17-17-17-17---------------------------| 
D|-------------------------------------------------------------| 
A|-------------------------------------------------------------| 
E|-------------------------------------------------------------| 

e|-----------------------------------------------------------| 
B|--15^(17)-(17)-15^(17)-15^(17)(17)r15 -13~---10~---13-12---| 
G|-----------------------------------------------------------| 
D|-----------------------------------------------------------| 
A|-----------------------------------------------------------| 
E|-----------------------------------------------------------| 

e|-------------------------------------12---------12--------| 
B|-8---10-10~-13--15^(17)-----15^(17)----15^(17)---15^(17)--| 
G|----9-----------------------------------------------------| 
D|----------------------------------------------------------| 
A|----------------------------------------------------------| 
E|----------------------------------------------------------| 
                          
e|--12---------12-12--12---------------------------------| 
B|-----15^(17)-----------15^(17~)----/13-13-13--15--10-10| 
G|-------------------------------------------------------| 
D|-------------------------------------------------------| 
A|-------------------------------------------------------| 
E|-------------------------------------------------------| 

I've got a Babylon feelin', I've got a Babylon feelin'
I've got a Babylon feelin', feelin', feelin', yeah X4

e|--------------------------------------------| 
B|--------------------------------------------|
G|--------------------------------------------| 
D|-x-x-10-10-x-x-10-10-12-10-(10)-x-x-10-10-10| 
A|-x-x-10-10-x-x-10-10-12-10-(10)-x-x-10-10-10|
D|-x-x-10-10-x-x-10-10-12-10-(10)-x-x-10-10-10|

e|-------------------------------------------------------| 
B|-------------------------------------------------------|
G|-11h12-9-----------------------------------------------| 
D|---------12-10-12/14\--x-x-10-10-x-x-10-10-12-10-(10)~-|
A|-----------------------x-x-10-10-x-x-10-10-12-10-(10)~-|
D|-----------------------x-x-10-10-x-x-10-10-12-10-(10)~-|

Comments