Evergrey - Blinded Chords & Tabs

 

Blinded Chords & Tabs

Evergrey Chords & Tabs

Version: 1 Type: Tab 0 ratings
1 star 2 stars 3 stars 4 stars 5 stars
comments

Blinded Tab

   
This is a new band to your data base. They are a Swedish band known as Evergrey, who are
currently on tour with Iced Earth and Children of Bodom. Their music has a very dark and
hardcore sound and has insane guitar riffs and vocals. Tom Englund, the leader and lead
vocalist of the band, has an incredible voice and is highly reccommended to listen to in
my opinion. I actually got to see them in concert on their tour with Iced Earth at
Newport Music Hall in Colombus. They were the first opening band, followed by Children
of Bodom and Iced Earth. They actually played Blinded, the song I'm tabbing now, and it
sounded phenomenal. They also played many other songs off of their Recreation Day album,
such as End of Days, it rocks the house, and Recreation Day(I can't hear enough of it).
So that's basically it. If you have any questions about this band, E-mail me at
leaderofjade@yahoo.com or go to their website at www.evergrey.org(it might be .com if
I'm mistaken). Enjoy this band, and I highly reccommend listening to them and their
newest album, The Inner Circle. Thank you for reading this. Enjoy!!!

Album: Recreation Day

I'm not sure about the intro so I'll begin with the main riff

Riff 1
e -------------------------------------------------|
B -------------------------------------------------|
G -------------------------------14-14-14-13-13-13-|
D -------------------------------x--x--x--x--x--x--|
A -----7h8p7-----------7h8p7-----12-12-12-11-11-11-|
E 0-000-----0-000-0-0-0-----0-000------------------|
  . ...     . ... . . .     . ...
[ Tab from: http://www.guitartabs.cc/tabs/e/evergrey/blinded_tab.html ]
e ----------------------------------------------|
B ----------------------------------------------|
G -------------------------------10-10-10-7-7-7-|
D -------------------------------x--x--x--x-x-x-|
A -----7h8p7-----------7h8p7-----8--8--8--5-5-5-|
E 0-000-----0-000-0-0-0-----0-000---------------|
  . ...     . ... . . .     . ...

e -------------------------------------------------|
B -------------------------------------------------|
G -------------------------------14-14-14-16-16-16-|
D -------------------------------x--x--x--x--x--x--|
A -----7h8p7-----------7h8p7-----12-12-12-14-14-14-|
E 0-000-----0-000-0-0-0-----0-000------------------|
  . ...     . ... . . .     . ...

e ----------------------------------------------|
B ----------------------------------------------|
G -------------------------------10-10-10-7-7-7-|
D -------------------------------x--x--x--x-x-x-|
A -----7h8p7-----------7h8p7-----8--8--8--5-5-5-|
E 0-000-----0-000-0-0-0-----0-000---------------|
  . ...     . ... . . .     . ...

Riff 2
e ------------------------------------------------|
B ------------------------------------------------|
G ------------------------------------------------|
D ------------------------------------------------|
A 2-2-2-2-2-2-3-3-3-3-3-3-2-2-2-2-2-2-3-3-3-3-3-3-|
E 0-0-0-0-0-0-1-1-1-1-1-1-0-0-0-0-0-0-1-1-1-1-1-1-|
  . . . . . . . . . . . . . . . . . . . . . . . .

Riff 3
e -------------------------------------|
B -------------------------------------|
G -------------------------------------|
D -----------555-----------------------|
A 222---23---333---3-5-6(v)--12(v)11---|(v)
E 000---01-----------------------------|
        .          . .

e ------------------------------------|
B ------------------------------------|
G ------------------------------------|
D --------------5---------------------|
A 222---22333---3---------------------|
E 000---00111-------------------------|

.(palm mute)

That's all I got so far. But I'll get back to it ASAP!!
Comments