Evergreen Terrace - Stars Chords & Tabs

 

Stars Chords & Tabs

Evergreen Terrace Chords & Tabs

Version: 1 Type: Tab 0 ratings
1 star 2 stars 3 stars 4 stars 5 stars
comments

Stars Tab

-----------------------------------------------------------------
stars - EVERGREEN TERRACE
-----------------------------------------------------------------
Tabbed by: akbal260
Email: akbal0594@hotmail.com



Tuning: drop D

intro:
e|---------------------------------------------------------------|
B|---------------------------------------------------------------|
G|---------------------------------------------------------------|
D|-5-5-5-5-5-5-5-5-4-4-4-4-4-4-4-4-7~----------------------------|
A|-5-5-5-5-5-5-5-5-4-4-4-4-4-4-4-4-5~----------------------------|
D|-5-5-5-5-5-5-5-5-4-4-4-4-4-4-4-4-5~----------------------------|

verse:
e|---------------------------------------------------------------|
B|---------------------------------------------------------------|
G|-------------9-9-9-9/------------------------------------------|
D|-12/-0-0-0-0-x-x-x-x/------------------------------------------|
A|-12/-0-0-0-0-7-7-7-7/------------------------------------------|
D|-12/-0-0-0-0---------------------------------------------------|

chorus:
e|---------------------------------------------------------------|
B|---------------------------------------------------------------|
G|---------------------------------------------------------------|
D|-5-5-5-5-5-5-5-5-4-4-4-4-4-4-4-4--0-0-------0-0-0--------------|
A|-5-5-5-5-5-5-5-5-4-4-4-4-4-4-4-4--0-0-------0-0-0--------------|
D|-5-5-5-5-5-5-5-5-4-4-4-4-4-4-4-4--0-0--3h4--0-0-0--3h4-3h4-----|
                                    ...       .....
                                
e|---------------------------------------------------------------|
B|------------------------------------------5-5--5-5-------------|
G|---------------------------------------------------------------|
D|-5-5-5-5-5-5-5-5-4-4-4-4-4-4-4-4-7-7-7-7-----------------------|
A|-5-5-5-5-5-5-5-5-4-4-4-4-4-4-4-4-5-5-5-5-----------------------|
D|-5-5-5-5-5-5-5-5-4-4-4-4-4-4-4-4-5-5-5-5-----------------------|
[ Tab from: http://www.guitartabs.cc/tabs/e/evergreen_terrace/stars_tab.html ]
e|------------------------------------------------5-5--5-5-------|
B|----------5-5--5-5-----------5-5--5-5-----------5-5--5-5-------|
G|---------------------------------------------------------------|
D|-7-7-7-7------------7-7-7-7------------7-7-7-7-----------------|
A|-5-5-5-5------------5-5-5-5------------5-5-5-5-----------------|
D|-5-5-5-5------------5-5-5-5------------5-5-5-5-----------------|

bridge:
e|---------------------------------------------------------------|
B|---------------------------------------------------------------|
G|---------------------------------------------------------------|
D|----0-0-0-0-----0-0-0-0-------0-0-----0-0-0-0-----0-0-0-0------|
A|-5--0-0-0-0--7--0-0-0-0--7h9--0-0--5--0-0-0-0--7--0-0-0-0--7h9-|
D|----0-0-0-0-----0-0-0-0-------0-0-----0-0-0-0-----0-0-0-0------|
      .......     .......       ...     .......     .......

e|---------------------------------------------------------------|
B|---------------------------------------------------------------|
G|--11b--9--9h11--11b--9--9h11-----------------------------------|
D|---------------------------------------------------------------|
A|---------------------------------------------------------------|
D|---------------------------------------------------------------|

outro:
e|---------------------------------------------------------------|
B|---------------------------------------------------------------|
G|---------------------------------------------------------------|
D|-0-0-0-0--0-0-0-0-----0-0-0-0--0-0-0-0-------------------------|
A|-0-0-0-0--0-0-0-0-----0-0-0-0--0-0-0-0-------------------------|
D|-0-0-0-0--0-0-0-0-----0-0-0-0--0-0-0-0-------------------------|
   .......  .......     .......  .......

e|---------------------------------------------------------------|
B|---------------------------------------------------------------|
G|---------------------------------------------------------------|
D|---------------------------------------------------------------|
A|-0-0-5-0-0-0-0-7-0-0-0-0-7h9-0-0-5-0-0-0-0-7-0-0-0-0-7h9-------|
D|---------------------------------------------------------------|
Comments